Oops, an error
Loading. Please wait.

Gimme Some Head Bass Tab

812 views 6 this week
no commentswrite comment
1 2 3 4 5
please rate
add to favorites
launch autoscroll
font size
0
reset
guitar tuner
Autoscroll
slow
fast
+/-
esc
set tempo
stop
Help us to improve Ultimate-Guitar.com Take our survey!
×
Contributor
derek tibbs tabbed this shit.he may have fucked up the rhythym,but the notes are right, bitches!


intro

G-------------------------------------------------------------------|
D-------------------------------------------------------------------|
A--------------------------------------------------------333--------|
E---0000000000000000--3333333333333333-5555555555555555------33-5---|

(continued)
G--------------------------------------------------|
D--------------------------------------------------|
A----------333--------------333--------------333---|
E--555555------33-5-555555------33-5-555555------3-|


verse

G------------------------------|
D------------------------------|
A--------------------333-------|
E--00000000-33333333-----33-5--|

chorus

G--7-5-4-2-------------------------------------|
D----------------------------------------------|
A-----------5-3-2-0----4-5-7--333--------------|
E--------------------5------------33-33--------|

there it is, listen to the song and play along, that's what i do.
comments
We did not receive enough feedback on this tab! Please rate:
print report bad tab
1 2 3 4 5
I want to post or [tab]
guest
You may want to rate the tab now too:
select rating
Please do not post tabs as comments. Select "correction" instead!