Oops, an error
Loading. Please wait.

Gimme Some Head Tab

1,842 views 1 this week
no commentswrite comment
1 2 3 4 5
x 6
add to favorites
launch autoscroll
font size
0
reset
how to read this tab
guitar tuner
Autoscroll
slow
fast
+/-
esc
set tempo
stop
Help us to improve Ultimate-Guitar.com Take our survey!
×
Author
Difficulty
novice
GG ALLIN
GIMME SOME HEAD

Ok so this song contains lots of solo parts for the guitar and personally
i do know how to play those bits but its too much effort to tab them so i
apologise for only tabbing the rythym guitar xD Its funner to play anyway so
enjoy you scumfucks!

There are three parts to the this song.

Part 1:

e|----------------------------------------------------------------|
B|----------------------------------------------------------------|
G|----------------------------------------------------------------|
D|-2--2-2-2-2-2-2-2-2-2-2-2-2-2--5--5-5-5-5-5-5-5-5-5-5-5-5-5-----|
A|-2--2-2-2-2-2-2-2-2-2-2-2-2-2--5--5-5-5-5-5-5-5-5-5-5-5-5-5-----|
E|-0--0-0-0-0-0-0-0-0-0-0-0-0-0--3--3-3-3-3-3-3-3-3-3-3-3-3-3-----|
 +
e|-----------------------------|------------------(-----------------)|
B|-----------------------------|------------------(-----------------)|
G|-----------------------------|------------------(-----------------)|
D|-7--7-7-7-7-7-7-7-7-7-7-7-7-7|-10-10-10-5--5-5-5(7--7-7-7-7-7-7-7-)|
A|-7--7-7-7-7-7-7-7-7-7-7-7-7-7|-10-10-10-5--5-5-5(7--7-7-7-7-7-7-7-)|
E|-5--5-5-5-5-5-5-5-5-5-5-5-5-5|-8--8--8--3--3-3-3(5--5-5-5-5-5-5-5-)|
                                Play above section |    | 4 times but
                                Remove ( )section on 4th time.
Part 2:

e|----------------------------------------------------------|
B|----------------------------------------------------------|
G|----------------------------------------------------------|
D|-2--2-2-2-2-2-2-5--5-5-5-5-5-5-10-10-10-5-5-5-7-7-5-7-5-7-| x4
A|-2--2-2-2-2-2-2-5--5-5-5-5-5-5-10-10-10-5-5-5-7-7-5-7-5-7-|
E|-0--0-0-0-0-0-0-3--3-3-3-3-3-3-8--8--8--3-3-3-5-5-3-5-3-5-|

Chorus/Part 3

e|---------------------------------------------------------------------|
B|---------------------------------------------------------------------|
G|-7--7-7-7-7-7-7------------------------------------------------------|
D|-7--7-7-7-7-7-7-5--5-5-5-5-5-5--7--7-7-7-7-7-7--(10-10-10--5--5-5-5-)| x4
A|-5--5-5-5-5-5-5-5--5-5-5-5-5-5--7--7-7-7-7-7-7--(10-10-10--5--5-5-5-)|
E|----------------3--3-3-3-3-3-3--5--5-5-5-5-5-5--(8--8--8-- 3--3-3-3-)|



Order : Part 1
        Part 2
        Chorus/Part 3
        Part 2
        Chorus/Part 3
        Part 1
        Part 2
        Chorus/Part 3
        Part2
        Chorus/part 3 + Play (  ) section 3 times then finish on:
                                                                 e|---|
                                                                 B|---|
                                                                 G|---|
                                                                 D|-7-|
                                                                 A|-7-|
                                                                 E|-5-|
Suggest correction
comments
print report bad tab
guest
You may want to rate the tab now too:
select rating
Wanna post a correction for this tab? Suggest correction