Oops, an error
Loading. Please wait.

God Of Fire In Hell Bass Tab

13 views 1 this week
no commentswrite comment
1 2 3 4 5
3 more votes to show rating
add to favorites
launch autoscroll
font size
0
reset
guitar tuner
Autoscroll
slow
fast
+/-
esc
set tempo
stop
Help us to improve Ultimate-Guitar.com Take our survey!
×
Author
Difficulty
[Intro]

G|---------------------------------|
D|---------------------------------|
A|---------------------------------|
E|----------------2-2-2-2--4-4-4-4-|


[Verse]

G|---------------------------------|
D|---------------------------------|
A|-4-4-4---4-4-4-------------------|
E|----------------2-2-2-2--4-4-4-4-|(x4)


[Chorus]

G|-----------------------------------|----------------------------------|
D|-----------------------------------|----------------------------------|
A|------------------4-4-4-4--1-1-1-1-|------------------4-4-4-4---------|
E|-2-2-2-2--4-4-4-4------------------|-2-2-2-2--4-4-4-4---------4-4-4-4-|
x3


[Verse]

G|---------------------------------|
D|---------------------------------|
A|-4-4-4---4-4-4-------------------|
E|----------------2-2-2-2--4-4-4-4-|(x4)


[Chorus]

                                  (x3)
G|-----------------------------------|----------------------------------|
D|-----------------------------------|----------------------------------|
A|------------------4-4-4-4--1-1-1-1-|------------------4-4-4-4---------|
E|-2-2-2-2--4-4-4-4------------------|-2-2-2-2--4-4-4-4---------4-4-4-4-|



[Solo]

                                (x4)                                (x3)
G|---------------------------------|-----------------------------------|----------------------------------|
D|---------------------------------|-----------------------------------|----------------------------------|
A|-4-4-4---4-4-4-------------------|------------------4-4-4-4--1-1-1-1-|------------------4-4-4-4---------|
E|----------------2-2-2-2--4-4-4-4-|-2-2-2-2--4-4-4-4------------------|-2-2-2-2--4-4-4-4---------4-4-4-4-|
                                                                  


[Verse]

G|---------------------------------|
D|---------------------------------|
A|-4-4-4---4-4-4-------------------|
E|----------------2-2-2-2--4-4-4-4-|(x4)


[Chorus]

                                  (x3)
G|-----------------------------------|----------------------------------|------------|
D|-----------------------------------|----------------------------------|------------|
A|------------------4-4-4-4--1-1-1-1-|------------------4-4-4-4---------|-4-4-4------|
E|-2-2-2-2--4-4-4-4------------------|-2-2-2-2--4-4-4-4---------4-4-4-4-|------------|
Suggest correction
Give kudos to tab author, rate the tab!
1 2 3 4 5
comments
print report bad tab
guest
You may want to rate the tab now too:
select rating
Wanna post a correction for this tab? Suggest correction