Oops, an error
Loading. Please wait.

Outlaw Scumfuc tab

4,328 views 1 this week
no commentswrite comment
1 2 3 4 5
1 last vote to show rating
add to favorites
×
Save as Personal and add changes to this tab that will be seen only by you. Learn more ›
×
You can save this tab as Personal to edit and correct it or add notes. All changes will be seen only by you. Learn more »
launch autoscroll
font size
0
reset
how to read this tab
guitar tuner
edit
Autoscroll
slow
fast
+/-
esc
set tempo
stop
I've been listening to this song very hard and I am 100% accurate that this is how it is 
Enjoy! Hope to be back with some more tabs!


|---------------------------------------------------------------------------|
|---------------------------------------------------------------------------|
|---------------------------------------------------------------------------|
|6-6-6-6-6-6-6-6-6-6-6-6-6/8-8-8-8-8-8-8-8----------------------------------|
|4-4-4-4-4-4-4-4-4-4-4-4-4/6-6-6-6-6-6-6-6--6-6-8-8-6-6-8-8-6-6-8-8-6-6-8-8-|
|-------------------------------------------4-4-4-4-4-4-4-4-4-4-4-4-4-4-4-4-|
                 Everybody knows that I'm a scumbag


|--------------------------------------------------------------------------|
|--------------------------------------------------------------------------|
|--------------------------------------------------------------------------|
|------------------------------------6-6-6-6-6-6-6-6-6-6-6-6-6-6-6-6-6-6-6-|
|-6-6-8-8-6-6-8-8-6-6-8-8-6-6-8-8-8--4-4-4-4-4-4-4-4-4-4-4-4-4-4-4-4-4-4-4-|
|-4-4-4-4-4-4-4-4-4-4-4-4-4-4-4-4-4----------------------------------------|
  They won't come and see me in this dive


|--------------------------------------------------------|
|--------------------------------------------------------|
|--------------------------------------------------------|
|-6-6-6-6-6-6-6-6-6-6------------------------------------|
|-4-4-4-4-4-4-4-4-4-4--6-6-6-6-6-6-6-6-6-3-3-3-3-3-3-3-3-|
|----------------------4-4-4-4-4-4-4-4-4-1-1-1-1-1-1-1-1-|
  Everyones afraid, of what might happen to them


|-------------------------------------------------------------|
|-------------------------------------------------------------|
|-------------------------------------------------------------|
|-----------------------------------8-8-8-8-8-8-8-8-8-8-8-8-8-|
|---8-8-8-8-8-8-8-8-8-8-8-8-8-8-8-8-6-6-6-6-6-6-6-6-6-6-6-6-6-|
|---6-6-6-6-6-6-6-6-6-6-6-6-6-6-6-6---------------------------|
 Or if they'll even get outa there alive

(Rest of lyrics)

Some fuckhead in the corner is getting to me
Talkin' about, the way I look and smell
I guess he doesn't know that I'm the Outlaw Scumfuc
Someone auta' warn him before I knock him straight to Hell


Because everybody knows that I'm a scumbag
I like sluts and whores and I don't care
You can say, just what you want to say about me
But if I hear you, I might just go knock you off your chair


'Cause I like to drink whiskey by the gallon
I live on peanut butter sandwiches I don't care
I spent some nights in jail, in this old country
Everybody hates me and I just don't fucking care


Because everybody knows that I'm a scumbag
They won't come and see me in this dive
Everyones afraid, of what might happen to them
Or if they'll even get out of there alive


Long live Gg Allin!

            
            
Suggest correction
Creating personal tab
Creating personal tab
You can edit any tab online and save it as your Personal.

You can edit, replace or remove any tab part or add personal notes – all changes will be seen only by you.

Personal tabs can be accessed anytime from any device, even offline.
Learn more »
Give kudos to tab author, rate the tab!
1 2 3 4 5
comments
print report bad tab
guest
You may want to rate the tab now too:
select rating
Wanna post a correction for this tab? Suggest correction