Oops, an error
Loading. Please wait.

Pick Me Up On Your Way Down Tab

1,988 views 12 this week
no commentswrite comment
1 2 3 4 5
please rate
add to favorites
launch autoscroll
font size
0
reset
how to read this tab
guitar tuner
Autoscroll
slow
fast
+/-
esc
set tempo
stop
Help us to improve Ultimate-Guitar.com Take our survey!
×
Contributor
Scumfuc 781
PICK ME UP (On Your Way Down). This is actally a
Patsy Cline song! This is GG's version.
Tabbed by Jake Strange (Scumfuc)
Email:  jakestrange@chaosmagic.com, or  scumfuc_69@yahoo.com
GG played this on a shitty acoustic guitar,as with most
of his other acoustic stuff, or it could possibly be the way
his acoustic songs were recorded.

Verses:
e|--7--777777--7777----55555-555----0000-000000-----------------------|
B|--7--777777--7777----55555-555----0000-000000--(9999--999999)-------|
G|--8--888888--8888----66666-666----1111-111111--(9999--999999)-------|
D|--9--999999--9999----77777-777----2222-222222--(9999--999999)-------|
A|--9--999999--9999----77777-777----2222-222222--(7777--777777)-------|
E|--7--777777--7777----55555-555----0000-000000-----------------------|
                   (play all this 3x, then the next part)

e|--77777--77777--777777----00000--0000-0000----------------|
B|--77777--77777--777777----00000--0000-0000---(999-999999)-|
G|--88888--88888--888888----11111--1111-1111---(999-999999)-|
D|--99999--99999--999999----22222--2222-2222---(999-999999)-|
A|--99999--99999--999999----22222--2222-2222---(777-777777)-|
E|--77777--77777--777777----00000--0000-0000----------------|


Chorus:
e|--5-5555--55---0000-000--00--------------||--777-77777--77--000000000-----|
B|--5-5555--55---0000-000--00--(9999-9999)-||--777-77777--77--000000000-(9)-|
G|--6-6666--66---1111-111--11--(9999-9999)-||--888-88888--88--111111111-(9)-|
D|--7-7777--77---2222-222--22--(9999-9999)-||--999-99999--99--222222222-(9)-|
A|--7-7777--77---2222-222--22--(7777-7777)-||--999-99999--99--222222222-(7)-|
E|--5-5555--55---0000-000--00--------------||--777-77777--77--000000000-----|
     (play 1st part 2x)

End:
e|--/7---7-----0--------|
B|--/7---7-----0---(9)--|
G|--/8---8-----1---(9)--|
D|--/9---9-----2---(9)--|
A|--/9---9-----2---(7)--|
E|--/7---7-----0--------|

Just so no one is confused about it, the chords in parentheses
are an optional alternative ways to play the "E" chords. Sounds
good either way, I prefer the ones in parens () that's why I tabbed
them, too.
comments
We did not receive enough feedback on this tab! Please rate:
print report bad tab
1 2 3 4 5
I want to post or [tab]
guest
You may want to rate the tab now too:
select rating
Please do not post tabs as comments. Select "correction" instead!