Oops, an error
Loading. Please wait.

The Dragster Wave bass

version 1
version 1

Whole song

Interactive

by Ghinzu
2,238 views 6 this week
no commentswrite comment
1 2 3 4 5
2 more votes to show rating
add to favorites
×
Save as Personal and add changes to this tab that will be seen only by you. Learn more ›
×
You can save this tab as Personal to edit and correct it or add notes. All changes will be seen only by you. Learn more »
launch autoscroll
font size
0
reset
guitar tuner
edit
Autoscroll
slow
fast
+/-
esc
set tempo
stop
Author
Difficulty
------------------------------------------------------------------------
                       The Dragster Wave - Ghinzu
------------------------------------------------------------------------

Tabbed By : Karleen Heong
e-mail: the_aurora_australis@hotmail.com

Tuning: Standard (EADG)

Here is the accompanying bass tab to my guitar tab on Ultimate Guitar.
It also starts halfway through the original song, at the piano solo.

I tried my hardest with this tab (I don't usually tab bass), there's
these fancy slides and things that were really hard to hear but I used a
program to slow it right down and change the octave so I could hear it 
properly. 
Therefore the tab should be accurate (or extremely close). 

Counting is included to help (semiquaver sliding etc.)
If you don't understand the counting, email me.

| /  slide up
| \  slide down
| h  hammer-on
| ~  let ring (a slight vibrato ok)



Intro (Piano Solo): 

G|-----------|-----------------|---------6-------|-----------------|
D|--3 bars---|-0-------------0-|-7-------------7-|-0---------------|
A|----rest---|-----------------|-----------------|-----------------|
E|-----------|-----------------|-----------------|-----------------|
	       1 + 2 + 3 + 4 +   1 + 2 + 3 + 4 +   1 + 2 + 3 + 4 +   

G|-----------------|-----------------|---------6-------|
D|-7-------8-----7-|-0---------------|-7-------------7-|
A|-----------------|-----------------|-----------------|
E|-----------------|-----------------|-----------------|
   1 + 2 + 3 + 4 +   1 + 2 + 3 + 4 +   1 + 2 + 3 + 4 +  

G|-----------------|-----------------|
D|-0---------------|-7-------8-----7-|
A|-----------------|-----------------|
E|-----------------|-----------------|
   1 + 2 + 3 + 4 +   1 + 2 + 3 + 4 +   

G|---------------------|---------------------|---------------------|
D|-0-------------------|---------------------|---------------------|
A|---------------------|-3-------------------|-1-------------0-1-3-|
E|---------------0-1/3-|---------------0-1/3-|---------------------|
   1 + 2 + 3 + 4 a + a   1 + 2 + 3 + 4 a + a   1 + 2 + 3 + 4 a + a   

G|---------------------|---------------------|---------------------|
D|---------------------|-0-------------------|---------------------|
A|---------------------|---------------------|-3-------------------|
E|-1-------------0-1/3-|---------------0-1/3-|---------------0-1/3-|
   1 + 2 + 3 + 4 a + a   1 + 2 + 3 + 4 a + a   1 + 2 + 3 + 4 a + a   


G|---------------------|-------------------------|
D|---------------------|-------------------------|
A|-1-------------0-1-3-|-------------0h3~--0h3~--|
E|---------------------|-1-----------------------|
   1 + 2 + 3 + 4 a + a   1 + 2 + 3 a + a 4 a + a  

G|---------------------------------|---------------------------------|
D|-0-0-0-0-0-0-0-0-0-0-0-0-0-------|---------------------------------|
A|---------------------------------|-3-3-3-3-3-3-3-3-3-3-3-3-3-------|
E|---------------------------0-1/3-|---------------------------0-1/3-|
   1 a + a 2 a + a 3 a + a 4 a + a   1 a + a 2 a + a 3 a + a 4 a + a

G|---------------------------------|---------------------------------|
D|---------------------------------|---------------------------------|
A|-1-1-1-1-1-1-1-1-1-1-1-1-1-0-1-3-|---------------------0h3~--0h3~--|
E|---------------------------------|-1-1-1-1-1-1-1-1-1-1-------------|
   1 a + a 2 a + a 3 a + a 4 a + a   1 a + a 2 a + a 3 a + a 4 a + a


Verse 1:

G|---------------------------------|---------------------------------|
D|-0-0-0-0-0-0-0-0-0-0-0-0-0-------|---------------------------------|
A|---------------------------------|-3-3-3-3-3-3-3-3-3-3-3-3-3-------|
E|---------------------------0-1/3-|---------------------------0-1/3-|
   1 a + a 2 a + a 3 a + a 4 a + a   1 a + a 2 a + a 3 a + a 4 a + a |
                                                                     | x2
G|---------------------------------|---------------------------------|
D|---------------------------------|---------------------------------|
A|-1-1-1-1-1-1-1-1-1-1-1-1-1-0-1-3-|---------------------0h3~--0h3~--|
E|---------------------------------|-1-1-1-1-1-1-1-1-1-1-------------|
   1 a + a 2 a + a 3 a + a 4 a + a   1 a + a 2 a + a 3 a + a 4 a + a


Chorus 1:

G|---------------------------------|---------------------------------|
D|-0-0-0-0-0-0-0-0-0-0-0-0-0-------|---------------------------------|
A|---------------------------------|-0-0-0-0-0-0-0-0-0-0-0-0-0-0---0-|
E|---------------------------0-1/3-|-----------------------------3---| 
   1 a + a 2 a + a 3 a + a 4 a + a   1 a + a 2 a + a 3 a + a 4 a + a |
                                                                     | x2
G|---------------------------------|---------------------------------|
D|---------------------------------|---------------------------------|
A|-1-1-1-1-1-1-1-1-1-1-1-1-1-1-0-1-|-4-4-4-4-4-4-4-4-6-6-6-6-6-4-4-4-|
E|---------------------------------|---------------------------------|
   1 a + a 2 a + a 3 a + a 4 a + a   1 a + a 2 a + a 3 a + a 4 a + a

No, the bass doesn't follow the guitar rhythm here I'm very sure


Post-Chorus 1:

G|---------------------------------|---------------------------------|
D|-0-0-0-0-0-0-0-0-0-0-0-0-0-------|---------------------------------|
A|---------------------------------|---------------------------------|
E|---------------------------1/3\1-|-3-3-3-3-3-3-3-3-3-3-3-3-3-3-1-3-|
   1 a + a 2 a + a 3 a + a 4 a + a   1 a + a 2 a + a 3 a + a 4 a + a

G|---------------------------------|---------------------------------------|
D|---------------------------------|---------------------------------------|
A|-0-0-0-0-0-0-0-0-0-0-0-0-0-0---0-|-1-1-1-1-4-4/8-8-8-8-10-10-12\10-12\10-|
E|-----------------------------3---|---------------------------------------|
   1 a + a 2 a + a 3 a + a 4 a + a   1 a + a 2 a + a 3 a +  a  4  a  +  a

                                                  Climbs up the neck here


*Verse 2: same as verse 1


*Chorus 2: same as chorus 1



Post-Chorus 2: 

G|---------------------------------|---------------------------------|
D|-0-0-0-0-0-0-0-0-0-0-0-0-0-------|---------------------------------|
A|---------------------------------|---------------------------------|
E|---------------------------1/3\1-|-3-3-3-3-3-3-3-3-3-3-3-3-3-3-1-3-|
   1 a + a 2 a + a 3 a + a 4 a + a   1 a + a 2 a + a 3 a + a 4 a + a

G|---------------------------------|---------------------------------------|
D|---------------------------------|---------------------------------------|
A|-0-0-0-0-0-0-0-0-0-0-0-0-0-0---0-|-1-1-1-1-4-4/8-8-8-8-10-10-12\10-12\10-|
E|-----------------------------3---|---------------------------------------|
   1 a + a 2 a + a 3 a + a 4 a + a   1 a + a 2 a + a 3 a +  a  4  a  +  a

G|---------------------------------|---------------------------------|
D|-0-0-0-0-0-0-0-0-0-0-0-0-0-------|---------------------------------|
A|---------------------------------|---------------------------------|
E|---------------------------1/3\1-|-3-3-3-3-3-3-3-3-3-3-3-3-3-3-1-3-|
   1 a + a 2 a + a 3 a + a 4 a + a   1 a + a 2 a + a 3 a + a 4 a + a

G|---------------------------------|--------------------------------------|
D|---------------------------------|--------------------------------------|
A|-0-0-0-0-0-0-0-0-0-0-0-0-0-0---0-|-1-1-1-1-4-4/8-8-8-8-10-10-12\10-12~~-|
E|-----------------------------3---|--------------------------------------|
   1 a + a 2 a + a 3 a + a 4 a + a   1 a + a 2 a + a 3 a +  a  4  a  +  a


End on this note

G|---|
D|-0-|
A|---|
E|---|


Ratings and comments are very much appreciated. Any problems, let me know.

I will mention once again that if you are looking for the guitar and/or
piano part in tab form, they are already on Ultimate Guitar. If you want
the actual piano sheets (music score), email me because I have them typed up.

============================================================================

            
            
Suggest correction
Creating personal tab
Creating personal tab
You can edit any tab online and save it as your Personal.

You can edit, replace or remove any tab part or add personal notes – all changes will be seen only by you.

Personal tabs can be accessed anytime from any device, even offline.
Learn more »
Give kudos to tab author, rate the tab!
1 2 3 4 5
comments
print report bad tab
guest
You may want to rate the tab now too:
select rating
Wanna post a correction for this tab? Suggest correction