Oops, an error
Loading. Please wait.

The Dragster Wave Bass Tab

version 2
version 2

Whole song

Interactive

252 views 1 this week
no commentswrite comment
1 2 3 4 5
please rate
add to favorites
launch autoscroll
font size
0
reset
guitar tuner
Tab Pro tools
  • play this tab
  • loop segment
  • change instrument
  • show fretboard
  • metronome
×
Best way to learn
"The Dragster Wave"
Autoscroll
slow
fast
+/-
esc
set tempo
stop
Contributor
-------------------------------------------------------------------------------
                         Ghinzu - The dragster wave
-------------------------------------------------------------------------------

Tabbed By : SpectralBanshee
e-mail: 
Tuning: Standard

G|-------------------------------|
D|-10-10--10\6--5--4-4--4/5-5--5-|
A|-------------------------------| x6 
E|-------------------------------|


G|-----------8-8--8\---------------|    |-----------8-8--8\-------------5-------|
D|-10-10--10--------5-5--5/9-9--9--|    |-10-10--10--------5-5--5-3-------------|
A|---------------------------------|x10 |---------------------------------------|
E|---------------------------------|    |---------------------------------------|

G|--------------------------------6--------------------------6----------------------|
D|-2------3-----3-5------0-----7-----7\-----7---8---7\----7-----7\-----7---8---7\---|
A|---------------------------3----------5-------------5------------5--------------5-|
E|----------------------------------------------------------------------------------|

G|--------------------------------------|
D|--------------------------------------|
A|-5----0/1/2/3---------1---0/1/3-------| x2
E|---------------0/1/2/3---------1--1/5-|

G|----------------------------------------------------------------------|
D|----------------------------------------------------------------------|
A|-5555-xx-5555-xxx-3333-xx-3333-xxx------------------------------3--3--| x3
E|-----------------------------------666-6666-66-6-5-6-8-111-1/5-5--5---|

G|--------------------------------------------------------------------|
D|--------------------------------------------------------------------|
A|-555-5555-55-555---------------------------------444-4444/666-6666--| x2
E|-----------------555-5555-55-555-666-6666-66-666--------------------|



G|-----------------------------------------------------------------|
D|----------------------------------------------------------35-353-|
A|-555-5555-55-555----------------------------------------4--------|
E|-----------------333-3333-33-333-555-5555-55-555-6-6-8-8---------|

G|----------------------------------------------------------------------|
D|----------------------------------------------------------------------|
A|-5555-xx-5555-xxx-3333-xx-3333-xxx------------------------------3--3--| x2
E|-----------------------------------666-6666-66-6-5-6-8-111-1/5-5--5---|

G|--------------------------------------------------------------------|
D|--------------------------------------------------------------------|
A|-555-5555-55-555---------------------------------444-4444/666-6666--| x2
E|-----------------555-5555-55-555-666-6666-66-666--------------------|

G|-----------------------------------------------------------------|
D|----------------------------------------------------------35-353-|
A|-555-5555-55-555----------------------------------------4--------| x2
E|-----------------333-3333-33-333-555-5555-55-555-6-6-8-8---------|




| /  slide up
| \  slide down
| h  hammer-on
| p  pull-off
| ~  vibrato
| +  harmonic
| x  Mute note
===============================================================================
comments
We did not receive enough feedback on this tab! Please rate:
print report bad tab
1 2 3 4 5
I want to post or [tab]
guest
You may want to rate the tab now too:
select rating
Please do not post tabs as comments. Select "correction" instead!