Oops, an error
Loading. Please wait.

Absolution bass

version 1
version 1

Whole song

Interactive

by Ghost
4,447 views 36 this week
no commentswrite comment
1 2 3 4 5
x 9
add to favorites
×
Save as Personal and add changes to this tab that will be seen only by you. Learn more ›
×
You can save this tab as Personal to edit and correct it or add notes. All changes will be seen only by you. Learn more »
launch autoscroll
font size
0
reset
guitar tuner
backing track
0:00
0:00
edit
Autoscroll
slow
fast
+/-
esc
set tempo
stop


G|-----------------------------------------------------------------|
D|---------------------------------0---------------------------/---|
A|-----------------------------------------------------------------|
D|-0---------------------------------------------------------------|
   1 + 2 + 3 + 4 + 1 + 2 + 3 + 4 + 1 + 2 + 3 + 4 + 1 + 2 + 3 + 4 +

G|---------------------------------------------------------------------|
D|-12--------14---13---12---------------------------------010-----3431-|
A|------------------------------------------------------22---32--------|
D|------------------------------------0---r----------------------------|
   1 + 2 + 3 +  4 +  1 +  2 + 3 + 4 + 1 + 2 + 3 + 4 + 1 + 2 + 3 + 4 +

0:15
G|--------------------------------------------------------------------|
D|o-----------------------------------------------------010-----3431-o|
A|o-------------------------------------5-----3------------32--------o|
D|--0-000---0---0---0---000-0-0-0/6-0-00----0---0-6---00--------------|
    1 + 2 + 3 + 4 + 1 + 2 + 3 + 4 + 1 + 2 + 3 + 4 + 1 + 2 + 3 + 4 +

Verse 0:31
G|-----------------------------------------------------------------|
D|-------------------------------------------------------------4---|
A|-----5-----5---------5-------6-------5-----5---5-----5-----------|
D|-0-------0---0---0-------0-0-----0-------0---0---0-------0-0-----|
   1 + 2 + 3 + 4 + 1 + 2 + 3 + 4 + 1 + 2 + 3 + 4 + 1 + 2 + 3 + 4 +

G|------------------------------------------------------------------|
D|-----------------------------4-----------------------010-----3431-|
A|-----5-----5-------------------6-----5-----3------------32--------|
D|-0-------0---0---0---0---0-0-----0-00----0---0-6---00-------------|
   1 + 2 + 3 + 4 + 1 + 2 + 3 + 4 + 1 + 2 + 3 + 4 + 1 + 2 + 3 + 4 +

Interlude 0:46
G|------------------------------------------------------------------|
D|-----------------------------------------------------010-----3431-|
A|-------------------------------------5-----3------------32--------|
D|-0-000---0---0---0---000-0-0-0/6-0-00----0---0-6---00-------------|
   1 + 2 + 3 + 4 + 1 + 2 + 3 + 4 + 1 + 2 + 3 + 4 + 1 + 2 + 3 + 4 +

Verse 0:54
G|-----------------------------------------------------------------|
D|-------------------------------------------------------------4---|
A|-----5-----5---------5-------6-------5-----5---5-----5-----------|
D|-0-------0---0---0-------0-0-----0-------0---0---0-------0-0-----|
   1 + 2 + 3 + 4 + 1 + 2 + 3 + 4 + 1 + 2 + 3 + 4 + 1 + 2 + 3 + 4 +

G|------------------------------------------------------------------|
D|-----------------------------4-----------------------010-----3431-|
A|-----5-----5-------------------6-----5-----3------------32--------|
D|-0-------0---0---0---0---0-0-----0-00----0---0-6---00-------------|
   1 + 2 + 3 + 4 + 1 + 2 + 3 + 4 + 1 + 2 + 3 + 4 + 1 + 2 + 3 + 4 +

Pre Chorus 1:10
G|-----------------------------------------------------------------|
D|-------------------------------------------------------------6-6-|
A|-----------------------------9-\---------------------------6-----|
D|-0---------------0-r-------------0---------------6---6---6-------|
   1 + 2 + 3 + 4 + 1 + 2 + 3 + 4 + 1 + 2 + 3 + 4 + 1 + 2 + 3 + 4 +

G|-----------------------------------------------------------------|
D|-----------------------------------------------------010---5-5-5-|
A|--------------------------------------------------------32-------|
D|-0---r-----------0-------r-------6-6-6-6-6-6-6-6-6-6-------------|
   1 + 2 + 3 + 4 + 1 + 2 + 3 + 4 + 1 + 2 + 3 + 4 + 1 + 2 + 3 + 4 +

Chorus 1:26
G|-------------------------------------------------------------------------|
D|-5-r-5---------------3-----5---------------------------------------5-5-5-|
A|-------------------3---3-----3-----------------------------5-4-3---------|
D|-----------5-4-3---------------3-5-\-5-----5-7-8---7-5-0-----------------|
   1 + 2 + 3 + 4 + 1 + 2 + 3 + 4 + 1 + 2 + 3 + 4 + 1 + 2 + 3 + 4 + 5 + 6 + 

G|-------------------------------------------------------------------------|
D|-5-r-5-------------------------------------------------------------5-5-5-|
A|-------------------3-r-3---3-3-----------------------------5-4-3---------|
D|-----------5-4-3---------------3-5-\-5-----5-7-8---7-5-0-----------------|
   1 + 2 + 3 + 4 + 1 + 2 + 3 + 4 + 1 + 2 + 3 + 4 + 1 + 2 + 3 + 4 + 5 + 6 + 

Interlude 1:44
G|------------------------------------------------------------------|
D|-----------------------------------------------------010-----3431-|
A|-------------------------------------5-----3------------32--------|
D|-0-000---0---0---0---000-0-0-0/6-0-00----0---0-6---00-------------|
   1 + 2 + 3 + 4 + 1 + 2 + 3 + 4 + 1 + 2 + 3 + 4 + 1 + 2 + 3 + 4 +

G|------------------------------------------------------------------|
D|-----------------------------4-----------------------010-----3431-|
A|-------------------------------6-----5-----3------------32--------|
D|-0-000---0---0---0---000-0-0-----0-00----0---0-6---00-------------|
   1 + 2 + 3 + 4 + 1 + 2 + 3 + 4 + 1 + 2 + 3 + 4 + 1 + 2 + 3 + 4 +

Verse 2:00
G|-----------------------------------------------------------------|
D|-------------------------------------------------------------4---|
A|-----5---------------5-------6-------5-----5---5-----5-----------|
D|-0-------0---0---0-------0-0-----0-0-----0---0---0-------0-0-----|
   1 + 2 + 3 + 4 + 1 + 2 + 3 + 4 + 1 + 2 + 3 + 4 + 1 + 2 + 3 + 4 +

G|------------------------------------------------------------------|
D|-----------------------------4-----------------------010-----3431-|
A|-----5-----5---5---------------6-----5-----3------------32--------|
D|-0-------0---0---0---0---0-0-----0-00----0---0-6---00-------------|
   1 + 2 + 3 + 4 + 1 + 2 + 3 + 4 + 1 + 2 + 3 + 4 + 1 + 2 + 3 + 4 +

Pre Chorus 2:15
G|-----------------------------------------------------------------|
D|-------------------------------------------------------------6-6-|
A|-------------------------------------------------------6---6-----|
D|-0---r-----------0-r-------------0---r-----------6---6---6-------|
   1 + 2 + 3 + 4 + 1 + 2 + 3 + 4 + 1 + 2 + 3 + 4 + 1 + 2 + 3 + 4 +

G|-----------------------------------------------------------------|
D|-----------------------------------------------------010---5-5-5-|
A|--------------------------------------------------------32-------|
D|-0---r-----------0-------r-------6-6-6-6-6-6-6-6-6-6-------------|
   1 + 2 + 3 + 4 + 1 + 2 + 3 + 4 + 1 + 2 + 3 + 4 + 1 + 2 + 3 + 4 +

Chorus 2:31
G|-------------------------------------------------------------------------|
D|-5-r-5---------------3-----5---------------------------------------5-5-5-|
A|-------------------3---3-----3-----------------------------5-4-3---------|
D|-----------5-4-3---------------3-5-\-5-----5-7-8---7-5-0-----------------|
   1 + 2 + 3 + 4 + 1 + 2 + 3 + 4 + 1 + 2 + 3 + 4 + 1 + 2 + 3 + 4 + 5 + 6 + 

G|-------------------------------------------------------------------------|
D|-5-r-5---------------------5---------------------------------------5-5-5-|
A|-------------------3-r-3-----3-----------------------------5-4-3---------|
D|-----------5-4-3---------------3-5-\-5-----5-7-8---7-5-0-----------------|
   1 + 2 + 3 + 4 + 1 + 2 + 3 + 4 + 1 + 2 + 3 + 4 + 1 + 2 + 3 + 4 + 5 + 6 + 

Interlude 2:49
G|---------------------------------------------------------------------7-/-|
D|-5-r-5-------------------------------------------------------------------|
A|-------------------------------------------------------------------------|
D|-------------------------------------------------------------------------|
   1 + 2 + 3 + 4 + 1 + 2 + 3 + 4 + 1 + 2 + 3 + 4 + 1 + 2 + 3 + 4 + 5 + 6 +

G|-12----------------------------------------------------------------------|
D|-------------------------------------------------------------------------|
A|-------------------------------------------------------------------------|
D|-------------------------------------------------------------------------|
   1 + 2 + 3 + 4 + 1 + 2 + 3 + 4 + 1 + 2 + 3 + 4 + 1 + 2 + 3 + 4 + 5 + 6 +

3:06
G|-------------------------------------------------------------------------|
D|-------------------------------------------------------------------------|
A|-----------------------3-------------6---------/10-----------------------|
D|-5-------------3---------------------------------------------------------|
   1 + 2 + 3 + 4 + 1 + 2 + 3 + 4 + 1 + 2 + 3 + 4 + 1 + 2 + 3 + 4 + 5 + 6 + 

G|-------------------------------------------------------------------------------|
D|-------------------------------------------------------------------------------|
A|-----------------------3-------------6---------/10-----------10-10-10-10-10-10-|
D|-5-------------3---------------------------------------------------------------|
   1 + 2 + 3 + 4 + 1 + 2 + 3 + 4 + 1 + 2 + 3 + 4 + 1 + 2 + 3 + 4  +  5  +  6  + 

Solo 3:24
G|--------------------------------------------------------------------------|
D|----------------------3-----5-----------------1-------3-------3-----5-5-5-|
A|-10-r---------------3---3-----3-5-6-\-------1---1---3-------3---3---------|
D|------5-----5-4-3---------------------1---1-------------3-----------------|
   1  + 2 + 3 + 4 + 1 + 2 + 3 + 4 + 1 + 2 + 3 + 4 + 1 + 2 + 3 + 4 + 5 + 6 + 

G|----------------------10------12--------------------8---------------------------|
D|-5-----------------10----10------10-12-13-\-------8---------3-------3-----------|
A|--------------------------------------------6---------1---3-------3---3---------|
D|-----5-----5-4-3----------------------------------------------3-----------5-5-5-|
   1 + 2 + 3 + 4 + 1 +  2  +  3 +  4  +  1  + 2 + 3 + 4 + 1 + 2 + 3 + 4 + 5 + 6 + 

G|-------------------------------------------------------------------------|
D|---------------------3-----5-----------------1-------3-------3-----------|
A|-------------------3---3-----3-5-6-\-------1---1---3-------3---3-------5-|
D|-5-\-5-----5-4-3---------------------1-----------------3-----------5-5---|
   1 + 2 + 3 + 4 + 1 + 2 + 3 + 4 + 1 + 2 + 3 + 4 + 1 + 2 + 3 + 4 + 5 + 6 + 

G|---------------------------------|
D|-----------------3-3-3-3-3-5-5-5-|
A|-6---6-6-6-6-6-6-----------------|
D|---------------------------------|
   1 + 2 + 3 + 4 + 1 + 2 + 3 + 4 + 

Chorus 3:54
G|-------------------------------------------------------------------------|
D|-5-r-5-\-------------3-----5---------------------------------------5-5-5-|
A|-------------------3---3-----3-----------------------------5-4-3---------|
D|-----------5-4-3---------------3-5-\-5---5-5-7-8---7-5-0-----------------|
   1 + 2 + 3 + 4 + 1 + 2 + 3 + 4 + 1 + 2 + 3 + 4 + 1 + 2 + 3 + 4 + 5 + 6 + 

G|-------------------------------------------------------------------------|
D|-5-r-5--\------------------5---------------------------------------5-5-5-|
A|-------------------3-r-3-----3-----------------------------5-4-3---------|
D|-----------5-4-3---------------3-5-\-5-----5-7-8---7-5-0-----------------|
   1 + 2 + 3 + 4 + 1 + 2 + 3 + 4 + 1 + 2 + 3 + 4 + 1 + 2 + 3 + 4 + 5 + 6 + 

Outro Chorus 4:12
G|----------------------10------12-----------------------------------------------|
D|-5-r-5-5---5-4-3---10----10------10--------------------------------------5-5-5-|
A|---------3--------------------------8-10-\-----------------------5-4-3---------|
D|-------------------------------------------5---5-5-7-8---7-5-0-----------------|
   1 + 2 + 3 + 4 + 1 +  2  +  3 +  4  + 1  + 2 + 3 + 4 + 1 + 2 + 3 + 4 + 5 + 6 + 

G|----------------------10------12-----------------------------------------------|
D|-5-r-5-5---5-4-3---10----10------10--------------------------------------5---5-|
A|---------3--------------------------8-10-\-----------------------5-4-3---------|
D|-------------------------------------------5-5-5-5-7-8-8-7-5-0-0---------------|
   1 + 2 + 3 + 4 + 1 +  2  +  3 +  4  + 1  + 2 + 3 + 4 + 1 + 2 + 3 + 4 + 5 + 6 + 

G|-----------------------------------------------------------------|
D|-----------------------------------------------------------------|
A|------------------------------/-10-------------------------------|
D|---5---------/-r-------------------------------------------------|
Tabbed by Dave Vucko
Suggest correction
Creating personal tab
Creating personal tab
You can edit any tab online and save it as your Personal.

You can edit, replace or remove any tab part or add personal notes – all changes will be seen only by you.

Personal tabs can be accessed anytime from any device, even offline.
Learn more »
comments
print report bad tab
guest
You may want to rate the tab now too:
select rating
Wanna post a correction for this tab? Suggest correction