Oops, an error
Loading. Please wait.
We have an official Body And Blood tab made by UG professional guitarists. Check out the tab »
×
by Ghost
4,063 views 39 this week
no commentswrite comment
1 2 3 4 5
1 last vote to show rating
add to favorites
×
Save as Personal and add changes to this tab that will be seen only by you. Learn more ›
×
You can save this tab as Personal to edit and correct it or add notes. All changes will be seen only by you. Learn more »
launch autoscroll
font size
0
reset
how to read this tab
guitar tuner
edit
Autoscroll
slow
fast
+/-
esc
set tempo
stop
[Intro]

d|---------------------------------------------------------------------|
A|---------------------------------------------------------------------|
F|--REST---------------REST--------------------pm-----------------REST-|
C|------------2--------------------------------===============--2------|
G|------------2--------------------------------2-2-2-2-2-2-2-2--2------|
D|------------0--------------------------------0-0-0-0-0-0-0-0--0------|


[Verse]

d||-------------------------------------------------------------------------------------------|
A||:--10-10-10-10-10-10-10-10--6-6-6/-13-13-13-13-13-13-13-13-13-13--12-12--------------------|
F||----9--9--9--9--9--9--9--9--5-5-5/-12-12-12-12-12-12-12-12-12-12--11-11--9-9-9/14-14-10-10-|
C||----7--7--7--7--7--7--7--7--3-3-3/-10-10-10-10-10-10-10-10-10-10---9--9--9-9-9/14-14-10-10-|
G||:------------------------------------------------------------------------7-7-7/12-12--8--8-|
D||-------------------------------------------------------------------------------------------|

                                           x2
d|------------------------------------------||------|
A|-----------------------------------------:||------|
F|-10/14-14-12-12--12\9-9-9-9-9-9-9-9-9-9---||------|
C|-10/14-14-12-12--12\9-9-9-9-9-9-9-9-9-9---||REST--|
G|--8/12-12-10-10--10\7-7-7-7-7-7-7-7-7-7--:||------|
D|------------------------------------------||------|


[Chorus]

d|-----------------------------------------------------------------------|
A|--15-15-13-----------------------15-15-13--------/10---12--------------|
F|--14-14-12-12-12--14-14----------14-14-12-12-12------9----9^10^9^10^9--|
C|--12-12-10-12-12--14-14-15-15-15-12-12-10-12-12------------------------|
G|-----------10-10--12-12-15-15-15----------10-10------------------------|
D|------------------------13-13-13---------------------------------------|

d|-------------------------------------------------------------------------|
A|--15-15-13-----------------------15-15-13--------/10---13----------------|
F|--14-14-12-12-12--14-14----------14-14-12-12-12------9----10-12^10^12^10-|
C|--12-12-10-12-12--14-14-15-15-15-12-12-10-12-12--------------------------|
G|-----------10-10--12-12-15-15-15----------10-10--------------------------|
D|------------------------13-13-13-----------------------------------------|

d|-----------------------------------------------------------------------|
A|--15-15-13-----------------------15-15-13--------/10---12--------------|
F|--14-14-12-12-12--14-14----------14-14-12-12-12------9----9^10^9^10^9--|
C|--12-12-10-12-12--14-14-15-15-15-12-12-10-12-12------------------------|
G|-----------10-10--12-12-15-15-15----------10-10------------------------|
D|------------------------13-13-13---------------------------------------|

d|-----------------------------------------------------------------------|
A|--15-15-13--------------------15-13------------------------------------|
F|--14-14-12-12-12--14-14-------14-12-12-12-12---9-----------------------|
C|--12-12-10-12-12--14-14-15-15-12-10-12-12-12---9--qr-------------------|
G|-----------10-10--12-12-15-15-------10-10-10---7-----------------------|
D|------------------------13-13------------------------------------------|


[Solo]

GUITAR ONE
d|-----------------------------------------------------------------15-------15/17-12-15-13-12-|
A|---13--9/12--12^b12----------------------------------9--10/12-13----12-13----------------12-|
F|-9------------------9^b^b^b-9^10^9----9--8^b8-8^9^11----------------------------------------|
C|-----------------------------------12-------------------------------------------------------|
G|--------------------------------------------------------------------------------------------|
D|--------------------------------------------------------------------------------------------|


(Rhythm under solo)

d|---------------------------------------------------------------------------------------------|
A|---------------------------------------------------------------------------------------------|
F|-------------------------5-5-5-5-5-5-5-5-5-5--4-4-9-9-9---------------------9-9-9-9-9-9-9-9-9|
C|-7-7-7-7-7-7-7-7--3-3-3--5-5-5-5-5-5-5-5-5-5--4-4-9-9-9-7-7-3-3-3-7-7-5-5-5-9-9-9-9-9-9-9-9-9|
G|-7-7-7-7-7-7-7-7--3-3-3--3-3-3-3-3-3-3-3-3-3--2-2-7-7-7-7-7-3-3-3-7-7-5-5-5-7-7-7-7-7-7-7-7-7|
D|-5-5-5-5-5-5-5-5--1-1-1-----------------------------7-7-5-5-1-1-1-5-5-3-3-3-7-7-7-7-7-7-7-7-7|


[Verse]

d|---------------------------------------------------------------------------------------------|
A|--10-10-10-10-----15\5-5-5-5-5-5-5-5-5--12-12-------10-10-------------------10-10--9---------|
F|---9--9--9--9-----12\4-4-4-4-4-4-4-4-4--11-11-9-9-9--9--9-10-14-14-12-12-12--9--9--9---------|
C|---7--7--7--7-qr--10\2-2-2-2-2-2-2-2-2---9--9-9-9-9--7--7-10-14-14-12-12-12--9--9--9--qr-----|
G|----------------------------------------------7-7-7--------8-12-12-10-10-10--7--7--7---------|
D|---------------------------------------------------------------------------------------------|


[Chorus]

d|-----------------------------------------------------------------------|
A|--15-15-13-----------------------15-15-13--------/10---12--------------|
F|--14-14-12-12-12--14-14----------14-14-12-12-12------9----9^10^9^10^9--|
C|--12-12-10-12-12--14-14-15-15-15-12-12-10-12-12------------------------|
G|-----------10-10--12-12-15-15-15----------10-10------------------------|
D|------------------------13-13-13---------------------------------------|
 
d|-------------------------------------------------------------------------|
A|--15-15-13-----------------------15-15-13--------/10---13----------------|
F|--14-14-12-12-12--14-14----------14-14-12-12-12------9----10-12^10^12^10-|
C|--12-12-10-12-12--14-14-15-15-15-12-12-10-12-12--------------------------|
G|-----------10-10--12-12-15-15-15----------10-10--------------------------|
D|------------------------13-13-13-----------------------------------------|

d|-----------------------------------------------------------------------|
A|--15-15-13-----------------------15-15-13--------/10---12--------------|
F|--14-14-12-12-12--14-14----------14-14-12-12-12------9----9^10^9^10^9--|
C|--12-12-10-12-12--14-14-15-15-15-12-12-10-12-12------------------------|
G|-----------10-10--12-12-15-15-15----------10-10------------------------|
D|------------------------13-13-13---------------------------------------|

d|--------------------------------------------------|
A|--15-15-13--------------------15-13---------------|
F|--14-14-12-12-12--14-14-------14-12-12-12-12---9--|
C|--12-12-10-12-12--14-14-15-15-12-10-12-12-12---9--|
G|-----------10-10--12-12-15-15-------10-10-10---7--|
D|------------------------13-13---------------------|


[Bridge]

d|----------------------------------------------------------------------------------------------|
A|-------------------------------------10-10-10-10-10-10-10-10-9-9-9-9-9-9-9-9------------------|
F|--------------------------------------9--9--9--9--9--9--9--9-9-9-9-9-9-9-9-9------------------|
C|---7-7-7-7-7-7-7-7--8-8-8-8-8-8-8-8---9--9--9--9--9--9--9--9-9-9-9-9-9-9-9-9------------------|
G|---7-7-7-7-7-7-7-7--8-8-8-8-8-8-8-8---7--7--7--7--7--7--7--7-7-7-7-7-7-7-7-7------------------|
D|---5-5-5-5-5-5-5-5--6-6-6-6-6-6-6-6-----------------------------------------------------------|

d|----------------------------------------------------------------------------------------------|
A|-------------------------------------10-10-10-10-10-10-10-10-9-9-9-9-9-9-9-9------------------|
F|--------------------------------------9--9--9--9--9--9--9--9-9-9-9-9-9-9-9-9-9-9-9-9-9-9-9-9--|
C|---7-7-7-7-7-7-7-7--8-8-8-8-8-8-8-8---9--9--9--9--9--9--9--9-9-9-9-9-9-9-9-9-9-9-9-9-9-9-9-9--|
G|---7-7-7-7-7-7-7-7--8-8-8-8-8-8-8-8---7--7--7--7--7--7--7--7-7-7-7-7-7-7-7-7-7-7-7-7-7-7-7-7--|
D|---5-5-5-5-5-5-5-5--6-6-6-6-6-6-6-6------------------------------------------0-0-0-0-0-0-0-0--|


[Solo]

 GUITAR ONE
d|--------------------------------------------------------------------------------------------|
A|-----------------------------------------8--10/12-8-----------------------------------------|
F|-----5-7/9-7-5-4^5^4-------------5-7/9-7------------------5-7/9-7-5-4^b4-2-0-2-0------------|
C|-5-7-----------------7-5-7---5-7----------------------5-7-------------------------3-2-3-2---|
G|--------------------------------------------------------------------------------------------|
D|--------------------------------------------------------------------------------------------|

d|------------------|
A|------------------|
F|------------------|
C|-3-0-5-5/7---3----|
G|------------------|
D|------------------|


[Solo]

GUITAR TWO
d|----------------------------------------------------------12-------12-10--------------------|
A|-------------------------------------------------------13----15-13-------13-12-13-12-10-----|
F|-------------------------------------------------12-14--------------------------------------|
C|-----------------------------------------5-7/10---------------------------------------------|
G|-----3-5/7--5-3-2^3^2------------3-5/7-5-----10---------------------------------------------|
D|-3-5------------------5-3-5--3-5------------------------------------------------------------|

d|-----------------------------------|
A|------------/13-12-----------------|
F|-12-14-12-14-------14---10-12-10-12|
C|-----------------------------------|
G|-----------------------------------|
D|-----------------------------------|


[Chorus]

d|-----------------------------------------------------------------------|
A|--15-15-13-----------------------15-15-13--------/10---12--------------|
F|--14-14-12-12-12--14-14----------14-14-12-12-12------9----9^10^9^10^9--|
C|--12-12-10-12-12--14-14-15-15-15-12-12-10-12-12------------------------|
G|-----------10-10--12-12-15-15-15----------10-10------------------------|
D|------------------------13-13-13---------------------------------------|

d|--------------------------------------------------|
A|--15-15-13--------------------15-13---------------|
F|--14-14-12-12-12--14-14-------14-12-12------------|
C|--12-12-10-12-12--14-14-15-15-12-10-12------------|
G|-----------10-10--12-12-15-15-------10------------|
D|------------------------13-13---------------------|



**********************************

| |:   repeat sign
| :|   repeat sign
| ^    hammer-on/pull-off
| /    slide up
| \    slide down
| ()   harmonics
| x    string mute
| ^b   bend
| qr   Quick Rest
| T    tapping
|pm    Palm Mute

**********************************

            
            
Suggest correction
Creating personal tab
Creating personal tab
You can edit any tab online and save it as your Personal.

You can edit, replace or remove any tab part or add personal notes – all changes will be seen only by you.

Personal tabs can be accessed anytime from any device, even offline.
Learn more »
Give kudos to tab author, rate the tab!
1 2 3 4 5
comments
print report bad tab
guest
You may want to rate the tab now too:
select rating
Wanna post a correction for this tab? Suggest correction