Oops, an error
Loading. Please wait.
We have an official Cirice tab made by UG professional guitarists. Check out the tab »
×
by Ghost
28,703 views 174 this week
4 commentsread comments
1 2 3 4 5
x 25
add to favorites
×
Save as Personal and add changes to this tab that will be seen only by you. Learn more ›
×
You can save this tab as Personal to edit and correct it or add notes. All changes will be seen only by you. Learn more »
launch autoscroll
font size
0
reset
guitar tuner
backing track
0:00
0:00
edit
Autoscroll
slow
fast
+/-
esc
set tempo
stop
0:16
G|-----------------------------------------|
D|-------------------------7---------------|
A|-5-------7-------6-----------------------|
D|---------------------------------------1-|
   1 + 2 + 3 + 4 + 1 + 2 + 3 + 4 + 1 + 2 +

G|-----------------------------------------------------------------|
D|-----------------------------------------------------------------|
A|-----------------------------------------------------------------|
D|-0---------------------------------------------------------------|
   1 + 2 + 3 + 4 + 1 + 2 + 3 + 4 + 1 + 2 + 3 + 4 + 1 + 2 + 3 + 4 +

G|-------------------------------------------------------------------------|
D|-----------------------------------------------------------------7---\---|
A|-----------------------------------------7-------6-----------------------|
D|-0-------------------------------0-----------------------7-------------1-|
   1 + 2 + 3 + 4 + 1 + 2 + 3 + 4 + 1 + 2 + 3 + 4 + 1 + 2 + 3 + 4 + 1 + 2 +

0:45
G|-----------------------------------------------------------------|
D|-----------------------------------------------------------------|
A|-----------------------------------------------------------------|
D|-0---------------------------2-1-0---------------------------2-1-|
   1 + 2 + 3 + 4 + 1 + 2 + 3 + 4 + 1 + 2 + 3 + 4 + 1 + 2 + 3 + 4 +

G|---------------------------------------------------------------------------------|
D|-----------------------------------------------------------------7---------------|
A|-----------------------------------------7-------6-------------------------------|
D|-0---------------------------2-1-0-------------------5-6-7-------------------r-1-|
   1 + 2 + 3 + 4 + 1 + 2 + 3 + 4 + 1 + 2 + 3 + 4 + 1 + 2 + 3 + 4 + 1 + 2 + 3 + 4 +

1:09
G|-----------------------------------------------------------------|
D|-----------------------------------------------------------------|
A|---------------6---6---------------------------6---6-------------|
D|-0-r-0-r-0-r-0r--0r--0r8-7-6-r-1-0-r-0-r-0-r-0r--0r--0r8-7-6-r-1-|
   1 + 2 + 3 + 4 + 1 + 2 + 3 + 4 + 1 + 2 + 3 + 4 + 1 + 2 + 3 + 4 +

Verse 1:20
G|-----------------------------------------------------------------|
D|-----------------------------------------------------------------|
A|---------------6---6---------------------------6---6-------------|
D|-0-r-0-r-0-r-0r--0r--0r8-7-6-r-1-0-r-0-r-0-r-0r--0r--0r8-7-6-r-0-|
   1 + 2 + 3 + 4 + 1 + 2 + 3 + 4 + 1 + 2 + 3 + 4 + 1 + 2 + 3 + 4 +

G|-----------------------------------------------------------------|
D|---------5-----7-6-----------------------5-----7-6---------------|
A|-----------------------6-r-6-r----------5--------------6-r-6-r---|
D|-5-r-5-r---7-r-----------------0-5-r-5-5---7-r-----------------1-|
   1 + 2 + 3 + 4 + 1 + 2 + 3 + 4 + 1 + 2 + 3 + 4 + 1 + 2 + 3 + 4 +

Interlude
G|-----------------------------------------------------------------|
D|-----------------------------------------------------------------|
A|---------------6---6---------------------------6---6-------------|
D|-0-r-0-r-0-r-0r--0r--0r8-7-6-r-1-0-r-0-r-0-r-0r--0r--0r8-7-6-r-1-|
   1 + 2 + 3 + 4 + 1 + 2 + 3 + 4 + 1 + 2 + 3 + 4 + 1 + 2 + 3 + 4 +

Verse Cont’d
G|-----------------------------------------------------------------|
D|-----------------------------------------------------------------|
A|---------------6---6---------------------------6---6-------------|
D|-0-r-0-r-0-r-0r--0r--0r8-7-6-r-1-0-r-0-r-0-r-0r--0r--0r8-7-6-r-0-|
   1 + 2 + 3 + 4 + 1 + 2 + 3 + 4 + 1 + 2 + 3 + 4 + 1 + 2 + 3 + 4 +

G|-----------------------------------------------------------------|
D|---------5-----7-6-----------------------5-----7-6---------------|
A|--------5--------------6-r-6-r----------5--------------6-r-6-r-5-|
D|-5-r-5-5---7-r-------0---------0-5-r-5-5---7-r-------------------|
   1 + 2 + 3 + 4 + 1 + 2 + 3 + 4 + 1 + 2 + 3 + 4 + 1 + 2 + 3 + 4 +

Chorus 2:13
G|-------------------------5-----------------------------------------------|
D|-5---------------------------------------5-------------------------------|
A|---------8-------6---------------8---------------8-----3-------6---------|
D|-------------------------------------------------------------------------|
   1 + 2 + 3 + 4 + 1 + 2 + 3 + 4 + 1 + 2 + 3 + 4 + 1 + 2 + 3 + 4 + 1 + 2 +

G|-------------------------5-----------------------------------------------|
D|-5---------------------------------------5-------------------------------|
A|---------8-------6---------------8---------------8-----3-------6---------|
D|-----------------------------------------------------------------------1-|
   1 + 2 + 3 + 4 + 1 + 2 + 3 + 4 + 1 + 2 + 3 + 4 + 1 + 2 + 3 + 4 + 1 + 2 +

Interlude 2:37
G|-----------------------------------------------------------------|
D|-----------------------------------------------------------------|
A|---------------6---6---------------------------6-\-6-\-----------|
D|-0-r-0-r-0-r-0r--0r--0r8-7-6-r-1-0-r-0-r-0-r-0r--------8-7-6-r-1-|
   1 + 2 + 3 + 4 + 1 + 2 + 3 + 4 + 1 + 2 + 3 + 4 + 1 + 2 + 3 + 4 +

Verse 2:48
G|-----------------------------------------------------7-----------|
D|-----------------------------------------------------------------|
A|---------------6---6---------------------------6---6---6-5-4-----|
D|-0-r-0-r-0-r-0r--0r--0r8-7-6-r-1-0-r-0-r-0-r-0r--0r----------r-0-|
   1 + 2 + 3 + 4 + 1 + 2 + 3 + 4 + 1 + 2 + 3 + 4 + 1 + 2 + 3 + 4 +

G|-----------------------------------------------------------------|
D|---------5-----7-6-----------------------5-----7-6---------------|
A|--------5--------------6-r-6-r----------5--------------6-r-6-r---|
D|-5-r-5r---7-r------------------0-5-r-5-5---7-r-------0---------1-|
   1 + 2 + 3 + 4 + 1 + 2 + 3 + 4 + 1 + 2 + 3 + 4 + 1 + 2 + 3 + 4 +

G|-----------------------------------------------------------------|
D|-----------------------------------------------------------------|
A|---------------6---6---------------------------6---6-----------5-|
D|-0-r-0-r-0-r-0r--0r--0r8-7-6-r-1-0-r-0-r-0-r-0r--0r--0r8-7-6-r---|
   1 + 2 + 3 + 4 + 1 + 2 + 3 + 4 + 1 + 2 + 3 + 4 + 1 + 2 + 3 + 4 +

3:20
G|-----------------------------------------------------------------|
D|-5--------------------------------------p4------p3---r-----------|
A|-----------------------------------------------------------------|
D|---------------------------------------------------------------0-|
   1 + 2 + 3 + 4 + 1 + 2 + 3 + 4 + 1 + 2 + 3 + 4 + 1 + 2 + 3 + 4 +

Chorus 3:30
G|---------------------8-------5-------------------------------5-----------|
D|-------------------8-------5---------3---------------------5-------------|
A|---------------6-------3-----------3-----------------3-3-------6\--------|
D|-5-5-5---3-3-3-----------------1-3-----0-5---5---3-3-------------r-1-1-0-|
   1 + 2 + 3 + 4 + 1 + 2 + 3 + 4 + 1 + 2 + 1 + 2 + 3 + 4 + 1 + 2 + 3 + 4 +

G|---------------------8-------5-------------------------------5-----------|
D|-------------------8-------5---------3---------------------5-------------|
A|---------------6-------3-----------3-----------------3-3-------6\--------|
D|-5-5-5-5-3-3-3-----------------1-3-----0-5-5-5-5-3-3-------------r-1-1-0-|
   1 + 2 + 3 + 4 + 1 + 2 + 3 + 4 + 1 + 2 + 1 + 2 + 3 + 4 + 1 + 2 + 3 + 4 +

Interlude
G|-----------------------------------------|
D|-5-----------------5-5-5-5-5-5-5---------|
A|---------------------------------8-8-8-5-|
D|-----------------------------------------|
   1 + 2 + 3 + 4 + 1 + 2 + 3 + 4 + 1 + 2 + 

Solo 4:01
G|---------------------8-------5-------------------------------5-----------|
D|-------------------8-------5---------3---------------------5-------------|
A|---------------6-------3-----------3-----------------3-3-------6\--------|
D|-5-5-5-5-3-3-3-----------------1-3-----0-5-r-5-5-3-3-------------r-1-1-0-|
   1 + 2 + 3 + 4 + 1 + 2 + 3 + 4 + 1 + 2 + 1 + 2 + 3 + 4 + 1 + 2 + 3 + 4 +

G|---------------------8-------5-------------------------------5-----------|
D|-------------------8-------5---------3-------------3-------5-------------|
A|---------------6-------3-3---------3-----------------3-3-------6\--------|
D|-5-r-5-5-3-3-3-----------------1-3-----0-5-5-5-5-3---------------r-1-1-1-|
   1 + 2 + 3 + 4 + 1 + 2 + 3 + 4 + 1 + 2 + 1 + 2 + 3 + 4 + 1 + 2 + 3 + 4 +

G|---------------------------------------------------------------------------------|
D|---------------------------------------------------------------------------------|
A|---------------6---6--------------------------/6--/6----------/6--/6-------------|
D|-0-r-0-r-0-r-0r--0r--0r8-7-6-r-1-0-r-0-r-0-r-0r--------3-r-1-r---------8-7-6-r---|
   1 + 2 + 3 + 4 + 1 + 2 + 3 + 4 + 1 + 2 + 3 + 4 + 1 + 2 + 3 + 4 + 1 + 2 + 3 + 4 +

Rest

Chorus 4:49
G|-----------------------8-------5-------------------------------5-----------|
D|---------------------8-------5---------3---------------------5-------------|
A|-----------------6-------3-3---------3-----------------3-3-------6\--------|
D|-0-5---5---3-3-3-----------------1-3-----0-5-5-5-5-3-3-------------r-1-1-0-|
   + 1 + 2 + 3 + 4 + 1 + 2 + 3 + 4 + 1 + 2 + 1 + 2 + 3 + 4 + 1 + 2 + 3 + 4 +

G|---------------------8-------5-------------------------------5-----------|
D|-------------------8-------5---------3---------------------5-------------|
A|---------------6-------3-----------3-----------------3-3-------6\--------|
D|-5---5---3-3-3-----------------1-3-----0-5---5---3-3-------------r-1-1-0-|
   1 + 2 + 3 + 4 + 1 + 2 + 3 + 4 + 1 + 2 + 1 + 2 + 3 + 4 + 1 + 2 + 3 + 4 +

5:13
G|---------------------8-------5-------------------------------5-----------|
D|-------------------8-------5---------3---------------------5-------------|
A|---------------6-------3-----------3-----------------3-3-------6\--------|
D|-5---5---3-3-3-----------------1-3-----0-5-5-5-5-3-3-------------r-1-1-0-|
   1 + 2 + 3 + 4 + 1 + 2 + 3 + 4 + 1 + 2 + 1 + 2 + 3 + 4 + 1 + 2 + 3 + 4 +

G|---------------------8-------5-------------------------------5-----------|
D|-------------------8-------5---------3---------------------5-------5-8---|
A|---------------6-------3-----------3-----------------3-3-------6---------|
D|-5---5---3-3-3-----------------1-3-----0-5-5-5-5-3-3-------------------6-|
   1 + 2 + 3 + 4 + 1 + 2 + 3 + 4 + 1 + 2 + 1 + 2 + 3 + 4 + 1 + 2 + 3 + 4 +

G|-----------------------------------------------------------------|
D|---------6-------------------------------------------------------|
A|-----------------5-----------------------------------------------|
D|-----------------------------------------------------------------|
   1 + 2 + 3 + 4 + 1 + 2 + 3 + 4 + 1 + 2 + 3 + 4 + 1 + 2 + 3 + 4 +
Tabbed by Dave Vucko
Suggest correction
Creating personal tab
Creating personal tab
You can edit any tab online and save it as your Personal.

You can edit, replace or remove any tab part or add personal notes – all changes will be seen only by you.

Personal tabs can be accessed anytime from any device, even offline.
Learn more »
comments
print report bad tab
4 comments total. Showing first comments.
0 reply
derbla991 10 Mar 28, 2017 11:36 AM

How do you release off of an open note lol

-1 reply
King_Bowser 10 Apr 11, 2017 01:42 AM

Should be D Standard.

0 reply
karl.chr 243 Apr 16, 2017 06:38 AM

Really good! Love Ghost sooo much!

guest
You may want to rate the tab now too:
select rating
Wanna post a correction for this tab? Suggest correction