Oops, an error
Loading. Please wait.
We have an official Cirice tab made by UG professional guitarists. Check out the tab »
×

Cirice solo tab

version 1
version 1

Solo

Whole song

  • I’m not quite sure. well, i notice most of the t... Show more
  • This is the most accurate of all the tabs for this song out there.

Interactive

by Ghost
10,093 views 93 this week
2 commentsread comments
1 2 3 4 5
x 10
add to favorites
×
Save as Personal and add changes to this tab that will be seen only by you. Learn more ›
×
You can save this tab as Personal to edit and correct it or add notes. All changes will be seen only by you. Learn more »
launch autoscroll
font size
0
reset
how to read this tab
guitar tuner
backing track
0:00
0:00
edit
Autoscroll
slow
fast
+/-
esc
set tempo
stop
-------------------------------------------------------------------------------
                             Cirice (Solo) - Ghost
-------------------------------------------------------------------------------
Tabbed by: Namrak
This tab borrows a bit from these two videos: https://www.youtube.com/watch?v=57tp5hRYvoQ
                                              https://www.youtube.com/watch?v=JfHrQVrZWpM

I find this method a lot easier since you don't have to move up and down the neck a lot.
Also, I fixed a few notes that sounded off to me. I slowed the music video down to half
speed to listen to the notes to get an idea of what the ghoul actually plays. Not
guaranteeing it's perfect but I think I got pretty close.

Here's the music video if you wanna play with it: https://www.youtube.com/watch?v=-0Ao4t_fe0I
Setting the speed to half on the video makes it a lot easier to start off with.
Hope this helps somebody.

Tuning: D Standard

D|-----------------------------12b13r-------------12-15b17----17-19br-15----14b15r-14------------|
A|-------12b13r-----------------------13-12-13-15----------17------------15-----------15b16r-15~-|
F|----14--------12----14----14-------------------------------------------------------------------|
C|-14--------------12----14----------------------------------------------------------------------|
G|-----------------------------------------------------------------------------------------------|
D|-----------------------------------------------------------------------------------------------|

D|----------------------------------------------------------------------------------|
A|----------------------------------------------------------------------------------|
F|----------------7br-7----7--------------------------------------------------------|
C|-7-10p7----7-10-------10---10-7------------------------------------------12h14p12-|
G|--------10-----------------------8-10-12-8-10-12-14-10-12-14-15-12-14h15----------|
D|----------------------------------------------------------------------------------|

D|--------------------------------------------------16b18----17-16-------------------------------|
A|----------------12h13~-13-12h13p12-------15b17----------17-------17----------------------------|
F|----------12h14--------------------14-12-------14-------------------17-16----------------------|
C|-12h14h15-----------------------------------------------------------------19-18brbrbrbrbrbrbr--|
G|-----------------------------------------------------------------------------------------------|
D|-----------------------------------------------------------------------------------------------|

************************************

| /   slide up
| \   slide down
| h   hammer-on
| p   pull-off
| ~   vibrato
| +   harmonic
| x   Mute note
| b   Bend
| pb  Pre-bend
| br  Bend release
| pbr Pre-bend release
| brb Bend release bend

************************************

            
            
Suggest correction
Creating personal tab
Creating personal tab
You can edit any tab online and save it as your Personal.

You can edit, replace or remove any tab part or add personal notes – all changes will be seen only by you.

Personal tabs can be accessed anytime from any device, even offline.
Learn more »
comments
print report bad tab
2 comments total.
0 reply
cravingaura 63 Jul 01, 2016 08:17 AM

Thanks so much!!!

0 reply
jamieshaffer61 10 Sep 04, 2017 02:42 PM

the only one that works in the song, thanks

guest
You may want to rate the tab now too:
select rating
Wanna post a correction for this tab? Suggest correction