Oops, an error
Loading. Please wait.
We have an official Cirice tab made by UG professional guitarists. Check out the tab »
×

Cirice tab

version 1
version 1

Whole song

  • I’m not quite sure. well, i notice most of the t... Show more
  • This is the most accurate of all the tabs for this song out there.

Interactive

by Ghost
195,021 views 1,557 this week
8 commentsread comments
1 2 3 4 5
x 65
add to favorites
×
Save as Personal and add changes to this tab that will be seen only by you. Learn more ›
×
You can save this tab as Personal to edit and correct it or add notes. All changes will be seen only by you. Learn more »
launch autoscroll
font size
0
reset
how to read this tab
guitar tuner
backing track
0:00
0:00
edit
Autoscroll
slow
fast
+/-
esc
set tempo
stop
Cirice - Ghost
Tabbed by:Austin Spencer

ShutUpAndPlayTuts's video-https://www.youtube.com/watch?v=JfHrQVrZWpM

Tuning: Standard D


[Intro]

0:00

Guitar 1
d|---------------------------------------------------------------------------|
A|--------0------------------------------------------------------------------|
F|--------------3-----0------------------------------------------------------| x3
C|-----2-----2-----4-----4--3------------------------------------------------|
G|-------------------------------3-2-1---------------------------------------|
D|--0------------------------------------2-1-0-------------------------------|

Guitar 1
d|---------------------------------------------------------------------------|
A|--------0------------------------------------------------------------------|
F|--------------3-----0------------------------------------------------------| x1
C|-----2-----2-----4-----4--3------------------------------------------------|
G|---------------------------------------6-----------------------------------|
D|--0----------------------------5-6-7---7-----------------------------------|

Guitar 1
d|---------------------------------------------------------------------------|
A|--------0------------------------------------------------------------------|
F|--------------3-----0------------------------------------------------------| x3
C|-----2-----2-----4-----4--3------------------------------------------------|
G|-------------------------------3-2-1---------------------------------------|
D|--0------------------------------------2-1-0-------------------------------|

Guitar 2
d|---------------------------------------------------------------------------|
A|---------------------------------------------------------------------------|
F|---------------------------------------------------------------------------|
C|-3-2-----------------------------------------------------------------------|
G|-3-2-----------------------------------------------------------------------|
D|-1-0-----------------------------------------------------------------------|

Guitar 1
d|---------------------------------------------------------------------------|
A|--------0------------------------------------------------------------------|
F|--------------3-----0------------------------------------------------------| x1
C|-----2-----2-----4-----4--3------------------------------------------------|
G|---------------------------------------6-----------------------------------|
D|--0----------------------------5-6-7---7-----------------------------------|


[Heavier Part]

0:44

Guitar 1
d|---------------------------------------------------------------------------|
A|---------------------------------------------------------------------------|
F|---------------------------------------------------------------------------| x3
C|----------9----8-----------------------------------------------------------|
G|------/10---10---9-10-9-8--------------------------------------------------|
D|---0------------------------8-7-6---2-1-0----------------------------------|

Guitar 2
d|---------------------------------------------------------------------------|
A|---------------------------------------------------------------------------|
F|---------------------------------------------------------------------------|
C|-3-2-----------------------------------------------------------------------|
G|-3-2-----------------------------------------------------------------------|
D|-1-0-----------------------------------------------------------------------|

Guitar 1
d|---------------------------------------------------------------------------|
A|---------------------------------------------------------------------------|
F|---------------------------------------------------------------------------|
C|----------9----8-----------------------------------------------------------|
G|------/10---10---9-10-9-8----------6---------------------------------------|
D|---0-----------------------5-6-7---7---------------------------------------|

Guitar 2
d|---------------------------------------------------------------------------|
A|---------------------------------------------------------------------------|
F|---------------------------------------------------------------------------|
C|---------------------------------------------------------------------------|
G|---------------------------------------------------------------------------|
D|---------------------------------------------------------------------------|


[Main Riff] x4

1:09

Guitar 1
d|---------------------------------------------------------------------------|
A|---------------------------------------------------------------------------|
F|--------------------------5-----5------------------------------------------| x4
C|-3-2--------0h2----2------3-----3-----2-1-0--------------------------------|
G|-3-2------------1--2------------------3-2-1--------------------------------|
D|-1-0----0-0--------0--0-0---0-0---0-0-------0-0----------------------------|

Guitar 2
d|---------------------------------------------------------------------------|
A|---------------------------------------------------------------------------|
F|--------------------------5-----5------------------------------------------| x4
C|-3-2--------0h2----2------3-----3-----2-1-0--------------------------------|
G|-3-2------------1--2------------------3-2-1--------------------------------|
D|-1-0----0-0--------0--0-0---0-0---0-0-------0-0----------------------------|


[Can you Hear the Rumble?] x2

1:30

Guitar 1
d|---------------------------------------------------------------------------|
A|---------------------------------------------------------------------------|
F|---------------------------------------------------------------------------| x2
C|-3/7-------------------------3------3--------------------------------------|
G|-3/7-------7-6------6-5------3------3--------------------------------------|
D|-1/5--0-0--8-7--0-0-7-6--0-0-1--0-0-1--0-0---------------------------------|

Guitar 2
d|---------------------------------------------------------------------------|
A|---------------------------------------------------------------------------|
F|---------------------------------------------------------------------------| x2
C|-3/7-------------------------3------3--------------------------------------|
G|-3/7-------7-6------6-5------3------3--------------------------------------|
D|-1/5--0-0--8-7--0-0-7-6--0-0-1--0-0-1--0-0---------------------------------|


[Piano Break]


[Main Riff] x4

Guitar 1
d|---------------------------------------------------------------------------|
A|---------------------------------------------------------------------------|
F|--------------------------5-----5------------------------------------------| x4
C|-3-2--------0h2----2------3-----3-----2-1-0--------------------------------|
G|-3-2------------1--2------------------3-2-1--------------------------------|
D|-1-0----0-0--------0--0-0---0-0---0-0-------0-0----------------------------|

Guitar 2
d|---------------------------------------------------------------------------|
A|---------------------------------------------------------------------------|
F|--------------------------5-----5------------------------------------------| x4
C|-3-2--------0h2----2------3-----3-----2-1-0--------------------------------|
G|-3-2------------1--2------------------3-2-1--------------------------------|
D|-1-0----0-0--------0--0-0---0-0---0-0-------0-0----------------------------|


[Can you Hear the Thunder?] x2

Guitar 1
d|---------------------------------------------------------------------------|
A|---------------------------------------------------------------------------|
F|---------------------------------------------------------------------------| x2
C|-3/7-------------------------3------3--------------------------------------|
G|-3/7-------7-6------6-5------3------3--------------------------------------|
D|-1/5--0-0--8-7--0-0-7-6--0-0-1--0-0-1--0-0---------------------------------|

Guitar 2
d|---------------------------------------------------------------------------|
A|---------------------------------------------------------------------------|
F|---------------------------------------------------------------------------| x2
C|-3/7-------------------------3------3--------------------------------------|
G|-3/7-------7-6------6-5------3------3--------------------------------------|
D|-1/5--0-0--8-7--0-0-7-6--0-0-1--0-0-1--0-0---------------------------------|


[Main Riff] x2

Guitar 1
d|---------------------------------------------------------------------------|
A|---------------------------------------------------------------------------|
F|--------------------------5-----5------------------------------------------| x4
C|-3-2--------0h2----2------3-----3-----2-1-0--------------------------------|
G|-3-2------------1--2------------------3-2-1--------------------------------|
D|-1-0----0-0--------0--0-0---0-0---0-0-------0-0----------------------------|

Guitar 2
d|---------------------------------------------------------------------------|
A|---------------------------------------------------------------------------|
F|--------------------------5-----5------------------------------------------| x4
C|-3-2--------0h2----2------3-----3-----2-1-0--------------------------------|
G|-3-2------------1--2------------------3-2-1--------------------------------|
D|-1-0----0-0--------0--0-0---0-0---0-0-------0-0----------------------------|


[Vocal Break]


[Chorus]

(I can feel the thunder that's breaking in your heart) 

3:31

Guitar 1
d|---------------------------------------------------------------------------|
A|-----------------------------------------------8-7--6-6--------------------|
F|-----5-4----5-7---5-4------------------5-4-----7-7--5-5--------------------|x2
C|-----------------------5-------5/7-----------------------------------------|
G|--0-------0-----0--------5---5------0-------0------------------------------|
D|---------------------------3-----------------------------------------------|

Guitar 2
d|---------------------------------------------------------------------------|
A|---------------------------------------------------------------------------|
F|---------------------------------------------------------------------------|x2
C|-2-7---7--5-5---3---3--3--3--5--5---7--7---5-5---3---3--3--3---------------|
G|-2-7---7--5-5---3---3--3--3--5--5---7--7---5-5---3---3--3--3---------------|
D|-0-5---5--3-3-0-1---1--1--1--3--3-0-5--5-0-3-3-0-1---1--1--1---------------|


[Just Guitar Before Solo]

4:01

Guitar 1
d|---------------------------------------------------------------------------|
A|---------------------------------------------------------------------------|
F|-----5-4----5-7---5-4------------------------------------------------------|
C|-----------------------5-------5/7-----------------------------------------|
G|--0-------0-----0--------5---5---------------------------------------------|
D|---------------------------3-----------------------------------------------|

Guitar 2
d|---------------------------------------------------------------------------|
A|---------------------------------------------------------------------------|
F|---------------------------------------------------------------------------|
C|---------------------------------2-7---------------------------------------|
G|---------------------------------2-7---------------------------------------|
D|---------------------------------0-5---------------------------------------|


[Solo] 

tutorial
https://www.youtube.com/watch?v=JfHrQVrZWpM


[After Solo]

Guitar 1
d|---------------------------------------------------------------------------|
A|---------------------------------------------------------------------------|
F|--------------------------5-----5------------------------------------------|
C|-3-2--------0h2----2------3-----3-----2-1-0--------------------------------|
G|-3-2------------1--2------------------3-2-1--------------------------------|
D|-1-0----0-0--------0--0-0---0-0---0-0-------0-0----------------------------|

Guitar 2
d|---------------------------------------------------------------------------|
A|---------------------------------------------------------------------------|
F|--------------------------5-----5------------------------------------------|
C|-3-2--------0h2----2------3-----3-----2-1-0--------------------------------|
G|-3-2------------1--2------------------3-2-1--------------------------------|
D|-1-0----0-0--------0--0-0---0-0---0-0-------0-0----------------------------|

Guitar 1
d|---------------------------------------------------------------------------|
A|---------------------------------------------------------------------------|
F|--------------------------5-----5-------------5-----5----------------------|
C|-3-2--------0h2----2------3-----3-----2-1-0---3-----3-----2-1-0------------|
G|-3-2------------1--2------------------3-2-1---------------3-2-1------------|
D|-1-0----0-0--------0--0-0---0-0---0-0-------0---0-0---0-0------------------|


[Chorus]x4

Guitar 1
d|---------------------------------------------------------------------------|
A|-----------------------------------------------8-7--6-6--------------------|
F|-----5-4----5-7---5-4------------------5-4-----7-7--5-5--------------------|x2
C|-----------------------5-------5/7-----------------------------------------|
G|--0-------0-----0--------5---5------0-------0------------------------------|
D|---------------------------3-----------------------------------------------|

Guitar 2
d|---------------------------------------------------------------------------|
A|---------------------------------------------------------------------------|
F|---------------------------------------------------------------------------|x2
C|-2-7---7--5-5---3---3--3--3--5--5---7--7---5-5---3---3--3--3---------------|
G|-2-7---7--5-5---3---3--3--3--5--5---7--7---5-5---3---3--3--3---------------|
D|-0-5---5--3-3-0-1---1--1--1--3--3-0-5--5-0-3-3-0-1---1--1--1---------------|


[Outro]

Guitar 1
d|---------------------------------------------------------------------------|
A|--7------------------------------------------------------------------------|
F|--7------------------------------------------------------------------------|
C|--7--2---------------------------------------------------------------------|
G|--5--2---------------------------------------------------------------------|
D|-----0---------------------------------------------------------------------|

Guitar 2
d|---------------------------------------------------------------------------|
A|--7------------------------------------------------------------------------|
F|--7------------------------------------------------------------------------|
C|--7--2---------------------------------------------------------------------|
G|--5--2---------------------------------------------------------------------|
D|-----0---------------------------------------------------------------------|


***********************************
| /   Slide up
| h   Hummer-on
***********************************
Suggest correction
Creating personal tab
Creating personal tab
You can edit any tab online and save it as your Personal.

You can edit, replace or remove any tab part or add personal notes – all changes will be seen only by you.

Personal tabs can be accessed anytime from any device, even offline.
Learn more »
comments
print report bad tab
8 comments total. Showing first comments.
+1 reply
antitheriffs 10 Sep 30, 2015 04:32 AM

This is really well done, thank you! On those open notes in the main riff they are all palm-muted, not everyone knows to do that without the tab. Also, thank you for the link to the solo.

+2 reply
jared.shinpachi 30 Jan 21, 2016 01:22 PM

Great tab! only thing I noticed is that in the "
Just Guitar Before Solo-4:01" part, you have it as 5-7 on the F-tuned string, when the 7 should be played on the C-tuned string.

+1 reply
CoffinMaster 10 Feb 12, 2016 05:13 PM

I changed my account, so the account that posted this is not in use, just to let everyone know

guest
You may want to rate the tab now too:
select rating
Wanna post a correction for this tab? Suggest correction