Oops, an error
Loading. Please wait.
We have an official Cirice tab made by UG professional guitarists. Check out the tab »
×

Cirice tab

version 2
version 2

Whole song

  • I’m not quite sure. well, i notice most of the t... Show more
  • This is the most accurate of all the tabs for this song out there.

Interactive

by Ghost
32,822 views 177 this week
1 commentread comment
1 2 3 4 5
x 22
add to favorites
×
Save as Personal and add changes to this tab that will be seen only by you. Learn more ›
×
You can save this tab as Personal to edit and correct it or add notes. All changes will be seen only by you. Learn more »
launch autoscroll
font size
0
reset
how to read this tab
guitar tuner
backing track
0:00
0:00
edit
Autoscroll
slow
fast
+/-
esc
set tempo
stop
Ghost - Cirice
By MasukaGuitar channel (https://www.youtube.com/user/masukaguitar)


[Intro] (00:00)  

D|-------------------------------------------------------------------------------------------|
A|-------------------------------------------------------------------------------------------|
F|---------4-----3-----0------------------------------4-----3-----0--------------------------|
C|------2-----2-----4-----4-3----------------------2-----2-----4-----4-3---------------------|
G|--------------------------------3-2-1--------------------------------------3-2-1-----------|
D|---0------------------------------------2-1---0------------------------------------2-1-----|

D|----------------------------------------------------3-----2--------------------------------|
A|-------------------------------------------------------------------------------------------|
F|---------4-----3-----0---------------------------4-----4-----5-4-3-2-----------------------|
C|------2-----2-----4-----4-3----------------------------------------------------------------|
G|--------------------------------3-2-1---------------------------------0-1-2--2-------------|
D|---0------------------------------------2-1---0----------------------------------1---------|


[Intro 2] (00:47)

D|-------------------------------------------------------------------------------------------|
A|-------------------------------------------------------------------------------------------|
F|--------4-----3------------------------------------4-----3---------------------------------|
C|----/2-----2-----4-4/5-4-3---------------------/2-----2-----4-4/5-4-3----------------------|
G|-----------------------------3-2-1--------------------------------------3-2-1--------------|
D|--0----------------------------------2-1-----0----------------------------------2-1--------|
                                  p.m.[...]                                      [...]
D|---------------------------------------------------3-----2---------------------------------|
A|-------------------------------------------------------------------------------------------|
F|--------4-----3---------------------------------4-----4-----5-4-3-2------------------------|
C|----/2-----2-----4-4/5-4-3---------------------------------------------1-2--1--------------|
G|-----------------------------3-2-1-----------------------------------3---------------------|
D|--0----------------------------------2-1-----0---------------------------------------------|
                                  p.m.[...]       


[Riff 1] (01:10)

D|-------------------------------------------------------------------------------------------|2X
A|-------------------------------------------------------------------------------------------|
F|-------------------------------------------------------------------------------------------|
C|------------------10--10-------------------------------10--10------------------------------|
G|----3-2--/7-------8---8----3-2-1---------3-2--/7-------8---8----3-2-1----------------------|
D|----1-0-----6-0--------------------------1-0-----6-0---------------------------------------|

D|-------------------------------------------------------------------------------------------|
A|-------------------------------------------------------------------------------------------|
F|-------------------------------------------------------------------------------------------|
C|-------------------------------------------------------------------------------------------|
G|---------3-7-/7-6~-/6-5~--3---3-----------3-7-/7-6~-/6-5~--3---3---------------------------|
D|---------1-5--------------1---1-----------1-5--------------1---1---------------------------|

D|-------------------------------------------------------------------------------------------|
A|-------------------------------------------------------------------------------------------|
F|-------------------------------------------------------------------------------------------|
C|------------------10--10-------------------------------10--10------------------------------|
G|----3-2--/7-------8---8----3-2-1---------3-2--/7-------8---8----3-2-1----------------------|
D|----1-0-----6-0--------------------------1-0-----6-0---------------------------------------|

RIFF 1 AGAIN (02:38)


[CHORUS] (03:35)

D|-------------------------------------------------------------------------------------------|2X
A|-------------------------------------------------------------------------------------------|
F|----------------------------------------------------------12-12-11----10-------------------|
C|------10-9----10-7---10-9-----5--------5/7-------10-9-----12-12-12-12-12-------------------|
G|--0-7-------0------0-------0----5----5-------0-7-------0-----------------------------------|
D|0---------------------------------3---------------------------------------1--1-1-1---------|


[SOLO] (04:01)

D|---------------------------12b13r12\8---8-10-12-15b17r-----17-19br-15----14b15r 14~----------|
A|--10-12b13r/8---8/10----10------------8----------------/17------------15-----------15b17-15~-|    
F|9-------------7------10----------------------------------------------------------------------|
C|---------------------------------------------------------------------------------------------|
G|---------------------------------------------------------------------------------------------|
D|---------------------------------------------------------------------------------------------|

D|---------------------------------------------------------------------------------------------|
A|---------------------------------------------------------------------------------------------|    
F|--------------------7b9r----7-----------------------------------------------9----------------|
C|---7-10p7----7--10-------10---10-7~-------------------9-------9-10p9---9h10---12~------------|
G|----------10--------------------------8-10-12-8-10-12---10-12--------12----------------------|
D|---------------------------------------------------------------------------------------------|

D|---------------------------------------------------------------17-16-------------------------|
A|---------------------12-13~-13-12h13p12 10-----15b----20b--17--------17-13-------------------|    
F|------------10h12h14-----------------------12------14----------------------16-14-13brbrbrbrbr|
C|-9/10h12h14----------------------------------------------------------------------------------|
G|---------------------------------------------------------------------------------------------|
D|---------------------------------------------------------------------------------------------|


[RIFF SOLO] (04:27)

D|---------------------------------------------------------------------------------------------|
A|---------------------------------------------------------------------------------------------|    
F|---------------------------------------------------------------------------------------------|
C|---------------10--10---------------------------10--10----------10--10-----------------------|
G|-3-2--/7-------8---8----3-2-1-----3-2--/7-------8---8-----------8---8---3-2-1----------------|
D|-1-0-----6-0----------------------1-0-----6-0------------3-2-1-------------------------------|


[FINAL CHORUS] (04:50)

D|-------------------------------------------------------------------------------------------|2X
A|-------------------------------------------------------------------------------------------|
F|----------------------------------------------------------12-12-11----10-------------------|
C|------10-9----10-7---10-9-----5--------5/7-------10-9-----12-12-12-12-12-------------------|
G|--0-7-------0------0-------0----5----5-------0-7-------0-----------------------------------|
D|0---------------------------------3---------------------------------------1--1-1-1---------|


D|-------------------------------------------------------------------------------------------|
A|-------------------------------------------------------------------------------------------|
F|----------------------------------------------------------12-12-11----10-------------------|
C|------10-9----10-7---10-9-----5--------5/7-------10-9-----12-12-12-12-12--/xx--------------|
G|--0-7-------0------0-------0----5----5-------0-7-------0------------------/xx--------------|
D|0---------------------------------3---------------------------------------/xx--------------|

D|-------------------------------------------------------------------------------------------|
A|-------------------------------------------------------------------------------------------|    
F|----------------------------------------------------------12-12-11--10--9----9---7---------|
C|-------10-9----10-7---10-9-----5--------5/7------10-9-----12-12-12--12-12---12---8---------|
G|---0-7-------0------0-------0----5----5------0-7-------0-----------------------------------|
D|-------------------------------------------------------------------------------------0-----|



************************************

| h   Hammer-on
| p   Pull-off
| r   Release
| b   Bend
| br  Bend release
| /   Slide up
| \   Slide down
| ~   Vibrato

************************************

            
            
Suggest correction
Creating personal tab
Creating personal tab
You can edit any tab online and save it as your Personal.

You can edit, replace or remove any tab part or add personal notes – all changes will be seen only by you.

Personal tabs can be accessed anytime from any device, even offline.
Learn more »
comments
print report bad tab
1 comment total.
+6 reply
Mike.S.27 10 Nov 18, 2015 02:01 PM

Awsome! But I think there's a few open D palm mutes missing from the Riff 1 bit,

Like
D|-------------------------------------------------------||
A|-------------------------------------------------------||
F|-------------------------------------------------------||
C|----------------------------10------10------5-4-3------||
G|----3-2-------/7------------8-------8-------3-2-1------||
D|----1-0--0-0-----6-0--0-0------0-0-----0-0---------0-0-||
. . . . . . . . . .
and
D|----------------------------------------------||
A|----------------------------------------------||
F|----------------------------------------------||
C|----------------------------------------------||
G|---3-7-------/7-6~------/6-5~------3-------3--||
D|---1-5--0-0--------0-0--------0-0--1--0-0--1--||
. . . . . . . .

Other than that it's spot on! 5*

guest
You may want to rate the tab now too:
select rating
Wanna post a correction for this tab? Suggest correction