Oops, an error
Loading. Please wait.
We have an official Cirice tab made by UG professional guitarists. Check out the tab »
×

Cirice tab

version 3
version 3

Whole song

  • I’m not quite sure. well, i notice most of the t... Show more
  • This is the most accurate of all the tabs for this song out there.

Interactive

by Ghost
1,724 views 24 this week
no commentswrite comment
1 2 3 4 5
2 more votes to show rating
add to favorites
×
Save as Personal and add changes to this tab that will be seen only by you. Learn more ›
×
You can save this tab as Personal to edit and correct it or add notes. All changes will be seen only by you. Learn more »
launch autoscroll
font size
0
reset
how to read this tab
guitar tuner
backing track
0:00
0:00
edit
Autoscroll
slow
fast
+/-
esc
set tempo
stop
About this tab version
I’m not quite sure. well, i notice most of the tabs available are for guitar pro, and i cant afford guitar pro, and i figured i am not the only one who cant, so i have taken it upon myself to provide as many tabs of my favorite songs as possible. for us po’ folks. Plus, I have looked at the other CIRICE tabs and they seem to be missing some stuff, and a little off to me. Not to say that mine is perfect, I just think I put a little more parts in mine. The whole song, note for note, on BOTH guitars. Was this info helpful? Yes No
[Intro]

Acoustic Intro, Guitar One, play 3 Xs
d||----------------------------------||------------------------------------------|
A||:------0-------------------------:||-------0----------------------------------|
F||-----------3---0------------------||-----------3----0-------------------------|
C||-----2---2---4---4-2--------------||-----2---2----4---4-3---------------------|
G||:--------------------3-2-1-------:||-----------------------0-1-2---2----------|
D||--0------------------------2--1---||--0----------------------------------1--0-|
                                      |
                                      |
Acoustic Intro, Guitar two            |
d|------------------------------------|-----3---2--------------------------------|
A|------------------------------------|---0---0---1--0---------------------------|
F|-------rest-------------------------|----------------3-2-----------------------|
C|------------------------------------|-----------------------1-1^2--1-----------|
G|------------------------------------|---------------------3--------------------|
D|------------------------------------|-------------------------------------1--0-|


Acoustic Intro, Guitar One, play 3 Xs
d||----------------------------------||------------------------------------------|
A||:------0-------------------------:||-------0----------------------------------|
F||-----------3---0------------------||-----------3----0-------------------------|
C||-----2---2---4---4-2--------------||-----2---2----4---4-3---------------------|
G||:--------------------3-2-1-------:||-----------------------0-1-2---2----------|
D||--0------------------------2--1---||--0----------------------------------1----|
                                      |
                                      |
Acoustic Intro, Guitar two            |
d|------------------------------------|-----3---2--------------------------------|
A|------------------------------------|---0---0---1--0---------------------------|
F|-------rest-------------------------|----------------3-2-----------------------|
C|------------------------------------|-----------------------1-1^2--1-----------|
G|------------------------------------|---------------------3--------------------|
D|------------------------------------|-------------------------------------1----|


DISTORTED INTRO, GUITAR ONE, PLAY 3 XS
d||--------------------------------------||-----------------------------------|
A||:------------------------------------:||-----------------------------------|
F||--------------------------------------||-----------------------------------|
C||------9---8-------------------PM------||-----9---8-------------------------|
G||:--/7---7---9-9^10-9-8--------====---:||--/7---7---9-9^10-9-8--------------|
D||--0--------------------8-7-6--2--1----||-0--------------------5-6-7---7----|

DISTORTED INTRO, GUITAR TWO, PLAY 3 XS
d||--------------------------------------||-----------------------------------|
A||:------------------------------------:||-----------------------------------|
F||--------------------------------------||-------12---11---------------------|
C||------9---8-------------------PM------||---7/9----9----10-9-8-7------------|
G||:--/7---7---9-9^10-9-8--------====---:||---------------------------6-7-6---|
D||--0--------------------8-7-6--2--1----||-------------------------8---------|


[Verse]

 PLAY FOUR TIMES
d||--------------------------------------------------||
A||:------------------------------------------------:||
F||----------------------10-----10-------------------||
C||--3--2--pm--2---------10-----10-------------------||
G||:-3--2--===---1-2-===--8-===--8-===--3-2-1-===---:||
D||--1--0--0-0-----0-0-0----0-0----0-0--5-3-2-0-0----||


d|---------------------------------------------------------------------------|
A|---------------------------------------------------------------------------|
F|----2-----------------------------------2----------------------------------|
C|--2-2--------------------3-----3------2-2---------------------3------3-----|
G|--2-0-X-X--0^7-6----6-5--3-===-3-===--2-0-X-X--0^7-6----6-5---3-===--3-===-|
D|--0---X-X----8-7-7--7-6--1-0-0-1-0-0--0---X-X----8-7-7--7-6---1-0-0--1-0-0-|


PLAY FOUR TIMES
d||--------------------------------------------------||
A||:------------------------------------------------:||
F||----------------------10-----10-------------------||
C||--3--2--pm--2---------10-----10-------------------||
G||:-3--2--===---1-2-===--8-===--8-===--3-2-1-===---:||
D||--1--0--0-0-----0-0-0----0-0----0-0--5-3-2-0-0----||


d|---------------------------------------------------------------------------|
A|---------------------------------------------------------------------------|
F|----2-----------------------------------2----------------------------------|
C|--2-2--------------------3-----3------2-2---------------------3------3-----|
G|--2-0-X-X--0^7-6----6-5--3-===-3-===--2-0-X-X--0^7-6----6-5---3-===--3-===-|
D|--0---X-X----8-7-7--7-6--1-0-0-1-0-0--0---X-X----8-7-7--7-6---1-0-0--1-0-0-|


[Chorus 1]

PIANO PART
d|-------------------------------------------3----------3-5-------------|
A|-------1--0---------1-----------1--0---------3------3-----------------|
F|------------------2---2-------2----------2----------------------------|
C|-----2---------------------------------0------------------------------|
G|---0------------------------------------------------------------------|
D|--------------3------------1---------------------3--------------------|

PIANO PART
d|------------------------------1---------|
A|-------1--0---------1-----3---1---------|
F|------------------2-------2---2----2----|
C|-----2------------------0---0-3--3------|
G|---0--------------------------3---------|
D|---------------3--------------1---------|


[Verse]

PLAY FOUR TIMES
d||--------------------------------------------------||
A||:------------------------------------------------:||
F||----------------------10-----10-------------------||
C||--3--2--pm--2---------10-----10-------------------||
G||:-3--2--===---1-2-===--8-===--8-===--3-2-1-===---:||
D||--1--0--0-0-----0-0-0----0-0----0-0--5-3-2-0-0----||


d|---------------------------------------------------------------------------|
A|---------------------------------------------------------------------------|
F|----2-----------------------------------2----------------------------------|
C|--2-2--------------------3-----3------2-2---------------------3------3-----|
G|--2-0-X-X--0^7-6----6-5--3-===-3-===--2-0-X-X--0^7-6----6-5---3-===--3-===-|
D|--0---X-X----8-7-7--7-6--1-0-0-1-0-0--0---X-X----8-7-7--7-6---1-0-0--1-0-0-|


d|--------------------------------------------------|
A|--------------------------------------------------|
F|-----------------------10-----10------------------|
C|---3--2--pm--2---------10-----10------------------|
G|---3--2--===---1-2-===--8-===--8-===--3-2-1-===---|
D|---1--0--0-0-----0-0-0----0-0----0-0--5-3-2-0-0---|


d|--------------------------------------------------|
A|--------------------------------------------------|
F|-----------------------10-----10------------------|
C|---3--2--pm--2---------10-----10------------REST--|
G|---3--2--===---1-2-===--8-===--8-===--3-2-1-------|
D|---1--0--0-0-----0-0-0----0-0----0-0--5-3-2-------|


[Chorus]

d|-------------------------------------------------------------------------------------------|
A|------------13-12---13--10-----13-12-------------------------13-12----8-8-7-7--6\----------|
F|-------------X--X----X---X------X--X--------------------------X--X----7-7-7-7--7\--pm------|
C|------------10--9---10---7-----10--9----5-------=-5-7-----7--10--9----0-0-0-0--7\--=====---|
G|------0--0--------0---------0---------0---5--=--5-------0-----------0--------------3-3-3---|
D|---0-----------------------------------------3-------------------------------------1-1-1---|


d|-------------------------------------------------------------------------------------------|
A|------------13-12---13--10-----13-12-------------------------13-12----8-8-7-7--6\----------|
F|-------------X--X----X---X------X--X--------------------------X--X----7-7-7-7--7\--pm------|
C|------------10--9---10---7-----10--9----5-------=-5-7-----7--10--9----0-0-0-0--7\--=====---|
G|------0--0--------0---------0---------0---5--=--5-------0-----------0--------------3-3-3---|
D|---0-----------------------------------------3-------------------------------------1-1-1---|


[Bridge into Solo]

d|-------------------------------------------------------|
A|-------------------------------------------------------|
F|-------------------------------------------------------|
C|-----------10-9-----10-------10-9-----------------5----|
G|------0--0-------0-----12--0-------0---5------------7--|
D|---0--------------------------------------5--3-3-------|


[Solo]

GUITAR ONE
d|--------------------------------------------------12-15^b15----17-19^b19-15----14^b-14---|
A|-------12^b12-----------------17^b17-----------15-----------17--------------15-----------|
F|----14--------12----14-----14--------17----17--------------------------------------------|
C|-14--------------12-----15--------------17-----------------------------------------------|
G|-----------------------------------------------------------------------------------------|
D|-----------------------------------------------------------------------------------------|

GUITAR ONE
d|-15^b-15-----------------------------------------------------------------------------------|
A|----------------------------------------------------------------------------------------13-|
F|--------------5-------5-7^b7-5-7^5--------------------------------9-7----------12^14^16----|
C|----------5/7---7^5-7--------------7---------7-9----7-9-10-7-9-10-----12^14^15-------------|
G|----------------------------------------8-10-----10----------------------------------------|
D|-------------------------------------------------------------------------------------------|

GUITAR ONE
d|--------------------------------15^b-12----17-16-----------------------------------------|
A|--13-12^13^12--------15^b------------------------18-17-----------------------------------|
F|--------------14-12-------14---------------------------16-14--13^b^b13-------------------|
C|-----------------------------------------------------------------------------------------|
G|-----------------------------------------------------------------------------------------|
D|-----------------------------------------------------------------------------------------|

GUITAR TWO UNDER SOLO
d|-------------------------------------------------------------------------------------------|
A|------------13-12---13--10-----13-12-------------------------13-12----8-8-7-7--6\----------|
F|-------------X--X----X---X------X--X--------------------------X--X----7-7-7-7--7\--pm------|
C|------------10--9---10---7-----10--9----5-------=-5-7-----7--10--9----0-0-0-0--7\--=====---|
G|------0--0--------0---------0---------0---5--=--5-------0-----------0--------------3-3-3---|
D|---0-----------------------------------------3-------------------------------------1-1-1---|

GUITAR TWO UNDER SOLO
d|-------------------------------------------------------------------------------------------|
A|------------13-12---13--10-----13-12-------------------------13-12----8-8-7-7--6\----------|
F|-------------X--X----X---X------X--X--------------------------X--X----7-7-7-7--7\--pm------|
C|------------10--9---10---7-----10--9----5-------=-5-7-----7--10--9----0-0-0-0--7\--=====---|
G|------0--0--------0---------0---------0---5--=--5-------0-----------0--------------3-3-3---|
D|---0-----------------------------------------3-------------------------------------1-1-1---|

BOTH GUITARS UNDER KEYBOARD SOLO
d|----------------------------------------------|
A|----------------------------------------------|
F|-------------------10-----10------------------|
C|--2--pm--2---------10-----10----------------3-|
G|--2--===---1-2-===--8-===--8-===--3-2-1-===-3-|
D|--0--0-0-----0-0-0----0-0----0-0--5-3-2-0-0-1-|

BOTH GUITARS UNDER KEYBOARD SOLO
d|--------------------------------------------------------------------------------------|
A|--------------------------------------------------------------------------------------|
F|-------------------10-----10----------------10-----10---------------------------------|
C|--2--pm--2----------9------9----------------10-----10-----------REST-FOR-KEYBOARDS----|
G|--2--===---1-2-===--8-===--8-===--5-4-3-===--8-===--8-===-3-2-1-----------------------|
D|--0--0-0-----0-0-0----0-0----0-0--3-2-1-0-0----0-0----0-0-5-3-2-----------------------|


KEYBOARD INTO GUITAR, PLAY TWO TIMES
D||-----------------------------------------||------------------------|
A||:---------------------------------------:||------------------------|
F||---9-------------8------------------7----||------REST--------------|
C||--10-------------9------------------8----||------------------------|
G||:--0-------------0------------------0---:||------------------------|
D||-----------------------------------------||------------------------|


[Final Chorus/Outro]

d|-------------------------------------------------------------------------------------------|
A|------------13-12---13--10-----13-12-------------------------13-12----8-8-7-7--6\----------|
F|-------------X--X----X---X------X--X--------------------------X--X----7-7-7-7--7\--pm------|
C|------------10--9---10---7-----10--9----5-------=-5-7-----7--10--9----0-0-0-0--7\--=====---|
G|------0--0--------0---------0---------0---5--=--5-------0-----------0--------------3-3-3---|
D|---0-----------------------------------------3-------------------------------------1-1-1---|


d|-------------------------------------------------------------------------------------------|
A|------------13-12---13--10-----13-12-------------------------13-12----8-8-7-7--6\----------|
F|-------------X--X----X---X------X--X--------------------------X--X----7-7-7-7--7\--pm------|
C|------------10--9---10---7-----10--9----5-------=-5-7-----7--10--9----0-0-0-0--7\--=====---|
G|------0--0--------0---------0---------0---5--=--5-------0-----------0--------------3-3-3---|
D|---0-----------------------------------------3-------------------------------------1-1-1---|


d|--------------------------------------------------------------------------------------------|
A|------------13-12---13--10-----13-12-------------------------13-12----8-8-7-7--6\-----------|
F|-------------X--X----X---X------X--X--------------------------X--X----7-7-7-7--7\-----------|
C|------------10--9---10---7-----10--9----5-------=-5-7-----7--10--9----0-0-0-0--7\-----------|
G|------0--0--------0---------0---------0---5--=--5-------0-----------0--------------X\-PICK--|
D|---0-----------------------------------------3-------------------------------------X\\------|SCRAPE


d|-------------------------------------------------------------------------------------------|
A|------------13-12---13--10-----13-12-------------------------13-12----8-8-7-7--------------|
F|-------------X--X----X---X------X--X--------------------------X--X----7-7-7-7-10-----------|
C|------------10--9---10---7-----10--9----5-------=-5-7-----7--10--9----0-0-0-0-10-10-10---8-|
G|------0--0--------0---------0---------0---5--=--5-------0-----------0----------8--8--8---8-|
D|---------------------------------------------3------------------------------------6--6---6-|

d|--------------------------------------------------------------------|
A|--------------------------------------------------------------------|
F|--------------------------------------------------------------------|
C|---2--LET-RING-OUT--------------------------------------------------|
G|---2----------------------------------------------------------------|
D|---0----------------------------------------------------------------|

************************************

|: = repeat sign
:| = repeat sign
^ = hammer-on/pull-off
/ = slide up
\ = slide down
() = harmonics
x = string mute
^b = bend
qr = Quick Rest
T = tapping

pm
== = Palm Mute

************************************

            
            
Suggest correction
Creating personal tab
Creating personal tab
You can edit any tab online and save it as your Personal.

You can edit, replace or remove any tab part or add personal notes – all changes will be seen only by you.

Personal tabs can be accessed anytime from any device, even offline.
Learn more »
Give kudos to tab author, rate the tab!
1 2 3 4 5
comments
print report bad tab
guest
You may want to rate the tab now too:
select rating
Wanna post a correction for this tab? Suggest correction