Oops, an error
Loading. Please wait.

Cirice Tab

version 4
version 4

Whole song

  • I’m not quite sure. well, i notice most of the t... Show more
  • This is the most accurate of all the tabs for this song out there.

Interactive

388 views 27 this week
no commentswrite comment
1 2 3 4 5
3 more votes to show rating
add to favorites
launch autoscroll
font size
0
reset
how to read this tab
guitar tuner
Autoscroll
slow
fast
+/-
esc
set tempo
stop
Help us to improve Ultimate-Guitar.com Take our survey!
×
Author
Difficulty
Tuning
intermediate
D G C F A D
About this tab version
This is the most accurate of all the tabs for this song out there. Was this info helpful? Yes No
The tuning is 1 whole step down.
 
Tab By: Flip Twogood

[Intro]
d|-------------------------------------------|-------------------------------------|
A|--------0----------------------------------|-------0-----------------------------|
F|--------------3-----0----------------------|------------3----0-------------------| 
C|-----2-----2-----4-----4--3~---------------|----2----2-----4---4--3~-------------|
G|-------------------------------3-2-1~------|--------------------------3-2-1~-----| x1 1/2
D|--0------------------------------------2-1-|-0-------------------------------2-1-|

d|-------------------------------------------------------|
A|--------0----------------------------------------------|
F|--------------3-----0----------------------------------| x1
C|-----2-----2-----4-----4--3~---------1-----------------|
G|------------------------------0-1-2--2-----------------|
D|--0----------------------------------------------------|

[Heavy part]
d|------------------------------------------------------------|
A|------------------------------------------------------------|
F|------------------------------------------------------------| x3
C|---------9----8---------------------------------------------|
G|------/10--10---9-10-9-8~-----------------------------------|
D|---0-----------------------8-7-6~---2-1-0-------------------|

d|---------------------------------------------------------------------|
A|---------------------------------------------------------------------|
F|---------------------------------------------------------------------| x1
C|----------9----8-----------------------------------------------------|
G|------/10---10---9-10-9-8~-------------------6~----------------------|
D|---0------------------------8-7-6~--5-6-7~---7~----------------------|

[Verse]
d|------------------------------------------------------|
A|------------------------------------------------------|
F|------------------------------------------------------|
C|-------------------------10----10---------------------|
G|--3-2~-------/7-----------8-----8--------7--6--5------|
D|--1-0~--0-0------6p0--0-0---0-0----0-0---8--7--6--0-0-|  x2
                                                                               
[Verse pt. 2]
d|-------------------------------------------------------------------------------------------------------|
A|-------------------------------------------------------------------------------------------------------|
F|-------------------------------------------------------------------------------------------------------|
C|--3--7~------------------------------3-------3--------3/-7-------------------------------3-------3-----|
G|--3--7~-------/7-6~------/6-5~-------3-------3--------3/-7--------/7-6~------/6-5~-------3-------3-----|
D|--1--5~--0-0--------0-0--/7-6~--0-0--1--0-0--1---0-0--1/-5---0-0--------0-0--/7-6~--0-0--1--0-0--1--0-0|

[Chorus]
d|------------------------------------------------------------------------------------------|2X
A|------------------------------------------------------------------------------------------|
F|-----------------------------------------------------------12-12-11----10-----------------|
C|------10-9~---10-7~---10-9~-----5-------5/7-------10-9-----12-12-12-12-10-----------------|
G|--0-7-------0-------0-------0-----5---5-------0-7-------0---------------------------------|
D|0-----------------------------------3---------------------------------------1-1-1-1-------|

[Solo]
                                   1/2 bend              full bend     1/2 bend  1/2 bend  full bend
d|--------------------------|---------------------------------------17-19br----------------------------|
A|--------------------------|-------17br-----------15--17--20br--17---------20----19br-19---15br--15~--|
F|-------17-16~--12----14~--|----14------17----17------------------------------19----------------------| 
C|----14------------12------|-15------------17---------------------------------------------------------|
G|-12-----------------------|--------------------------------------------------------------------------|
D|--------------------------|--------------------------------------------------------------------------|

                                                                                           full bend
d|-------------------------------|------------------------------------------7h8-8-7h8p7------10br-----|
A|-------------------------------|----------------------------5---------6h8-------------10-8------10~-|
F|------5-----5--7/8/7-5-7-5-----|-------5-----4-----4-----457--7~--5h7-------------------------------| 
C|--5-7---5-7-----------------7~-|---5-7---5-7---5-7----5-7-------------------------------------------|
G|-------------------------------|-8------------------------------------------------------------------|
D|-------------------------------|--------------------------------------------------------------------|

  full bend
d|-15b-12~--|--17p16-12---------------------|
A|----------|-----------13p12---------------|
F|----------|-----------------14-13~--------| 
C|----------|-------------------------------|
G|----------|-------------------------------|
D|----------|-------------------------------|

[Ending chord]
d|------------------------------|
A|------------------------------|
F|---------9~-------------------| x1
C|---------9~-------------------|
G|---------7~-------------------|
D|------------------------------|



************************************

| h   Hammer-on
| p   Pull-off
| b   Bend
| br  Bend release
| /   Slide up
| ~   Vibrato

************************************
Suggest correction
Give kudos to tab author, rate the tab!
1 2 3 4 5
comments
print report bad tab
guest
You may want to rate the tab now too:
select rating
Wanna post a correction for this tab? Suggest correction