Oops, an error
Loading. Please wait.

Con Clavi Con Dio bass

version 1
version 1

Whole song

Interactive

by Ghost
12,185 views 33 this week
no commentswrite comment
1 2 3 4 5
x 8
add to favorites
×
Save as Personal and add changes to this tab that will be seen only by you. Learn more ›
×
You can save this tab as Personal to edit and correct it or add notes. All changes will be seen only by you. Learn more »
launch autoscroll
font size
0
reset
guitar tuner
backing track
0:00
0:00
edit
Autoscroll
slow
fast
+/-
esc
set tempo
stop
G|-------------------------------------------------------------------------------------------------|
D|-------------------------------------------------------------------------------------------------|
A|-3h5---5-----3h5---5-----3h5---5-----3h5---5-3---3h5---5-----3h5---5-----3h5---5-----3h5-5-5-3---|
D|-----0-----0-----0-----0-----0-----0-----------6-----0-----0-----0-----0-----0-----0-----------6-|
   1 2 3 4 5 6 1 2 3 4 5 6 1 2 3 4 5 6 1 2 3 4 5 6 1 2 3 4 5 6 1 2 3 4 5 6 1 2 3 4 5 6 1 2 3 4 5 6

G|-------------------------------------------------------------------------------------------------|
D|-------------------------------------------------------------------------------------------------|
A|-3h5---5-----3h5---5-----3h5---5-----3h5---5-3---3h5---5-----3h5---5-----3h5---5-----3h5---5-3---|
D|-----0-----0-----0-----0-----0-----0-----------6-----0-----0-----0-----0-----0-----0-----------6-|
   1 2 3 4 5 6 1 2 3 4 5 6 1 2 3 4 5 6 1 2 3 4 5 6 1 2 3 4 5 6 1 2 3 4 5 6 1 2 3 4 5 6 1 2 3 4 5 6

0:14
G|-------------------------------------------------------------------------------------------------|
D|-------------------------------------------------------------------------------------------------|
A|-------------------------------------------------------------------------------------------------|
D|-1-0-0-1-0-0-1-0-0-1-0-0-1-0-0-1-0-0-6-8-8-8-7-6-1-0-0-1-0-0-1-0-0-1-0-0-1-0-0-1-0-0-6-8-8-8-7-6-|
   1 2 3 4 5 6 1 2 3 4 5 6 1 2 3 4 5 6 1 2 3 4 5 6 1 2 3 4 5 6 1 2 3 4 5 6 1 2 3 4 5 6 1 2 3 4 5 6

G|-------------------------------------------------------------------------------------------------|
D|-------------------------------------------------------------------------------------------------|
A|-------------------------------------------------------------------------------------------------|
D|-1-0-0-1-0-0-1-0-0-1-0-0-1-0-0-1-0-0-6-8-8-8-7-6-1-0-0-1-0-0-1-0-0-1-0-0-1-----------4-----------|
   1 2 3 4 5 6 1 2 3 4 5 6 1 2 3 4 5 6 1 2 3 4 5 6 1 2 3 4 5 6 1 2 3 4 5 6 1 2 3 4 5 6 1 2 3 4 5 6

0:28
G|---------------------------------------------------------------------------------------------------|
D|o-------------------------------------------------------------------------------------------------o|
A|o-------------------------------------------------------------------------------------------------o|
D|--1-0-0-1-0-0-1-0-0-1-0-0-1-0-0-1-0-0-6-8-8-8-7-6-1-0-0-1-0-0-1-0-0-1-0-0-1-0-0-1-0-0-6-8-8-8-7-6--|
    1 2 3 4 5 6 1 2 3 4 5 6 1 2 3 4 5 6 1 2 3 4 5 6 1 2 3 4 5 6 1 2 3 4 5 6 1 2 3 4 5 6 1 2 3 4 5 6

G|-------------------------------------------------|
D|-------------------------------------------------|
A|-------5-5-5-5-5-5-5-5-5-4-4-4-5-5-5-7-7-7-4-4-4-|
D|-0-----------------------------------------------|
   1 2 3 4 5 6 1 2 3 4 5 6 1 2 3 4 5 6 1 2 3 4 5 6 

0:47
G|-------------------------------------------------------------------------------------------------|
D|-------------------------------------------------------------------------------------------------|
A|-5---5-5-----5---5-5-----------------------------------------------------------------------------|
D|-------------------------4---4-4-----4---4-4-----3---3-3-----3---3-3-----2---2-2-----2---2-2-----|
   1 2 3 4 5 6 1 2 3 4 5 6 1 2 3 4 5 6 1 2 3 4 5 6 1 2 3 4 5 6 1 2 3 4 5 6 1 2 3 4 5 6 1 2 3 4 5 6

G|-------------------------------------------------------------------------------------------------|
D|-------------------------------------------------------------------------------------------------|
A|-0-----------------------5-----------------------8-----------3-----------10----10----10----10----|
D|-------------------------------------------------------------------------------------------------|
   1 2 3 4 5 6 1 2 3 4 5 6 1 2 3 4 5 6 1 2 3 4 5 6 1 2 3 4 5 6 1 2 3 4 5 6 1 2 3 4 5 6 1 2 3 4 5 6

1:02
G|-------------------------------------------------------------------------------------------------|
D|-------------------------------------------------------------------------------------------------|
A|-1-0-0-1-0-0-1-0-0-1-0-0-1-0-0-1-0-0-1-0-0-1-0-0-1-0-0-1-0-0-1-0-0-1-0-0-1-0-0-1-0-0-1-0-0-1-0-0-|
D|-------------------------------------------------------------------------------------------------|
   1 2 3 4 5 6 1 2 3 4 5 6 1 2 3 4 5 6 1 2 3 4 5 6 1 2 3 4 5 6 1 2 3 4 5 6 1 2 3 4 5 6 1 2 3 4 5 6

G|-------------------------------------------------|
D|-------------------------------------------------|
A|-1-0-0-1-0-0-1-0-0-1-0-0-1-0-0-1-0-0-1-0-0-1-----|
D|-------------------------------------------------|
   1 2 3 4 5 6 1 2 3 4 5 6 1 2 3 4 5 6 1 2 3 4 5 6 

1:13
G|-------------------------------------------------------------------------------------------------|
D|-------------------------------------------------------------------------------------------------|
A|-------------------------------------------------------------------------------------------------|
D|-1-0-0-1-0-0-1-0-0-1-0-0-1-0-0-1-0-0-6-8-8-8-7-6-1-0-0-1-0-0-1-0-0-1-0-0-1-0-0-1-0-0-6-8-8-8-7-6-|
   1 2 3 4 5 6 1 2 3 4 5 6 1 2 3 4 5 6 1 2 3 4 5 6 1 2 3 4 5 6 1 2 3 4 5 6 1 2 3 4 5 6 1 2 3 4 5 6

G|-------------------------------------------------------------------------------------------------|
D|-------------------------------------------------------------------------------------------------|
A|-------------------------------------------------------------------------------------------------|
D|-1-0-0-1-0-0-1-0-0-1-0-0-1-0-0-1-0-0-6-8-8-8-7-6-1-0-0-1-0-0-1-0-0-1-0-0-1-----------4-----------|
   1 2 3 4 5 6 1 2 3 4 5 6 1 2 3 4 5 6 1 2 3 4 5 6 1 2 3 4 5 6 1 2 3 4 5 6 1 2 3 4 5 6 1 2 3 4 5 6

1:28
G|---------------------------------------------------------------------------------------------------|
D|o-------------------------------------------------------------------------------------------------o|
A|o-------------------------------------------------------------------------------------------------o|
D|--1-0-0-1-0-0-1-0-0-1-0-0-1-0-0-1-0-0-6-8-8-8-7-6-1-0-0-1-0-0-1-0-0-1-0-0-1-0-0-1-0-0-6-8-8-8-7-6--|
    1 2 3 4 5 6 1 2 3 4 5 6 1 2 3 4 5 6 1 2 3 4 5 6 1 2 3 4 5 6 1 2 3 4 5 6 1 2 3 4 5 6 1 2 3 4 5 6

G|-------------------------------------------------|
D|-------------------------------------------------|
A|-------5-5-5-5-5-5-5-5-5-4-4-4-5-5-5-7-7-7-4-4-4-|
D|-0-----------------------------------------------|
   1 2 3 4 5 6 1 2 3 4 5 6 1 2 3 4 5 6 1 2 3 4 5 6 

1:47
G|-------------------------------------------------------------------------------------------------|
D|-------------------------------------------------------------------------------------------------|
A|-5---5-5-----5---5-5-----------------------------------------------------------------------------|
D|-------------------------4---4-4-----4---4-4-----3---3-3-----3---3-3-----2---2-2-----2---2-2-----|
   1 2 3 4 5 6 1 2 3 4 5 6 1 2 3 4 5 6 1 2 3 4 5 6 1 2 3 4 5 6 1 2 3 4 5 6 1 2 3 4 5 6 1 2 3 4 5 6

G|-------------------------------------------------------------------------------------------------|
D|-------------------------------------------------------------------------------------------------|
A|-0-----------------------5-----------------------8-----------3-----------10----10----10----\-----|
D|-------------------------------------------------------------------------------------------------|
   1 2 3 4 5 6 1 2 3 4 5 6 1 2 3 4 5 6 1 2 3 4 5 6 1 2 3 4 5 6 1 2 3 4 5 6 1 2 3 4 5 6 1 2 3 4 5 6

2:00
G|-------------------------------------------------------------------------------------------------|
D|-------------------------------------------------------------------------------------------------|
A|-------------------------------------------------------------------------------------------------|
D|-1-0-1-0-1-0-1-0-1-0-1-0-1-0-1-0-1-0-1-0-1-0-1-0-1-0-1-0-1-0-1-0-1-0-1-0-1-0-1-0-1-0-1-0-1-0-1-0-|
   1 2 3 4 5 6 1 2 3 4 5 6 1 2 3 4 5 6 1 2 3 4 5 6 1 2 3 4 5 6 1 2 3 4 5 6 1 2 3 4 5 6 1 2 3 4 5 6

G|-------------------------------------------------------------------------------------------------|
D|-------------------------------------------------------------------------------------------------|
A|-------------------------------------------------------------------------------------------------|
D|-3h4p3-4-----3-----4-----3h4p3-4-----3-----4-----3h4p3-4-----3-----4-----3h4p3-4-----3-----4-----|
   1 2 3 4 5 6 1 2 3 4 5 6 1 2 3 4 5 6 1 2 3 4 5 6 1 2 3 4 5 6 1 2 3 4 5 6 1 2 3 4 5 6 1 2 3 4 5 6

G|-------------------------------------------------------------------------------------------------|
D|-------------------------------------------------------------------------------------------------|
A|-------------------------------------------------------------------------------------------------|
D|-1-0-1-0-1-0-1-0-1-0-1-0-1-0-1-0-1-0-1-0-1-0-1-0-1-0-1-0-1-1-1-1-1-1-1-1-1-1-1-1-1-1-1-1-1-1-1-1-|
   1 2 3 4 5 6 1 2 3 4 5 6 1 2 3 4 5 6 1 2 3 4 5 6 1 2 3 4 5 6 1 2 3 4 5 6 1 2 3 4 5 6 1 2 3 4 5 6

2:23
G|-------------------------------------------------|
D|-------------------------------------------------|
A|-3h5---5-----3h5---5-----3h5---5-----3h5---5-3---|
D|-----0-----0-----0-----0-----0-----0-----------6-|
   1 2 3 4 5 6 1 2 3 4 5 6 1 2 3 4 5 6 1 2 3 4 5 6 


G|-------------------------------------------------------------------------------------------------|
D|-------------------------------------------------------------------------------------------------|
A|-6-5-5-6-5-5-6-5-5-6-5-5-6-5-5-6-5-5/8-8-8-8-5-3-6-5-5-6-5-5-6-5-5-6-5-5-6-5-5-6-5-5/8-8-8-8-5-3-|
D|-------------------------------------------------------------------------------------------------|
   1 2 3 4 5 6 1 2 3 4 5 6 1 2 3 4 5 6 1 2 3 4 5 6 1 2 3 4 5 6 1 2 3 4 5 6 1 2 3 4 5 6 1 2 3 4 5 6

G|-------------------------------------------------------------------------------------------------|
D|-------------------------------------------------------------------------------------------------|
A|-6-5-5-6-5-5-6-5-5-6-5-5-6-5-5-6-5-5/8-8-8-8-5-3-------------5-5-5-5-5-5-------0-0-0-3-3-3-------|
D|-------------------------------------------------0-----------------------6-6-6-------------6-6-6-|
   1 2 3 4 5 6 1 2 3 4 5 6 1 2 3 4 5 6 1 2 3 4 5 6 1 2 3 4 5 6 1 2 3 4 5 6 1 2 3 4 5 6 1 2 3 4 5 6

2:41
G|-------------------------------------------------------------------------------------------------|
D|-------------------------------------------------------------------------------------------------|
A|-5---5-5-----5---5-5-----------------------------------------------------------------------------|
D|-------------------------4---4-4-----4---4-4-----3---3-3-----3---3-3-----2---2-2-----2---2-2-----|
   1 2 3 4 5 6 1 2 3 4 5 6 1 2 3 4 5 6 1 2 3 4 5 6 1 2 3 4 5 6 1 2 3 4 5 6 1 2 3 4 5 6 1 2 3 4 5 6

G|-------------------------------------------------------------------------------------------------|
D|-------------------------------------------------------------------------------------------------|
A|-0-----------------------5-----------------------8-----------3-----------10----10----7-----7--\--|
D|-------------------------------------------------------------------------------------------------|
   1 2 3 4 5 6 1 2 3 4 5 6 1 2 3 4 5 6 1 2 3 4 5 6 1 2 3 4 5 6 1 2 3 4 5 6 1 2 3 4 5 6 1 2 3 4 5 6

2:56 repeat till end
G|---------------------------------------------------------------------------------------------------|
D|o-------------------------------------------------------------------------------------------------o|
A|o-1-0-0-1-0-0-1-0-0-1-0-0-1-0-0-1-0-0-1-0-0-1-0-0-1-0-0-1-0-0-1-0-0-1-0-0-1-0-0-1-0-0-1-0-0-1-0-0-o|
D|---------------------------------------------------------------------------------------------------|
    1 2 3 4 5 6 1 2 3 4 5 6 1 2 3 4 5 6 1 2 3 4 5 6 1 2 3 4 5 6 1 2 3 4 5 6 1 2 3 4 5 6 1 2 3 4 5 6
Tabbed by Dave Vucko
Suggest correction
Creating personal tab
Creating personal tab
You can edit any tab online and save it as your Personal.

You can edit, replace or remove any tab part or add personal notes – all changes will be seen only by you.

Personal tabs can be accessed anytime from any device, even offline.
Learn more »
comments
print report bad tab
guest
You may want to rate the tab now too:
select rating
Wanna post a correction for this tab? Suggest correction