Oops, an error
Loading. Please wait.

Depth Of Satans Eyes bass

version 1
version 1

Whole song

Interactive

by Ghost
2,618 views 12 this week
2 commentsread comments
1 2 3 4 5
x 3
add to favorites
×
Save as Personal and add changes to this tab that will be seen only by you. Learn more ›
×
You can save this tab as Personal to edit and correct it or add notes. All changes will be seen only by you. Learn more »
launch autoscroll
font size
0
reset
guitar tuner
edit
Autoscroll
slow
fast
+/-
esc
set tempo
stop
Author
G|-----------------------------------------------------------------|
D|-----------------------------------------------------------------|
A|-----5-5-----5-5-----5-5-----5-5-----5-5-----5-5-----5-5-----5-5-|
D|-----------------------------------------------------------------|
   1 + 2 + 3 + 4 + 1 + 2 + 3 + 4 + 1 + 2 + 3 + 4 + 1 + 2 + 3 + 4 +

G|-----------------------------------------------------------------|
D|-----------------------------------------------------------------|
A|-----5-5-----5-5-----5-5-----5-5-----5-5-----5-\-----------------|
D|-----------------------------------------------------------------|
   1 + 2 + 3 + 4 + 1 + 2 + 3 + 4 + 1 + 2 + 3 + 4 + 1 + 2 + 3 + 4 +

0:14
G|------------------------------------------------------------------|
D|o-----------------------------------------------------------------|
A|o-5-------3-----------------------5-------3-------------------1-3-|
D|------0-0-----0-0-6---0-0-1-1-0-0-----0-0-----0-0-6---0-3-4-6-----|
    1 + 2 + 3 + 4 + 1 + 2 + 3 + 4 + 1 + 2 + 3 + 4 + 1 + 2 + 3 + 4 +

G|--------------------------------------------------------------|
D|-----------------------------------------------------------6-o|
A|-5-------3-----------------------5-------3-----------1-3-5---o|x3
D|-----0-0-----0-0-6---0-0-1-1-0-0-----0-0-----0-3-4-6----------|
   1 + 2 + 3 + 4 + 1 + 2 + 3 + 4 + 1 + 2 + 3 + 4 + 1 + 2 + 3 +

0:58
G|---------------------------------------------------------10--\---|
D|-9---9---9-------9---12--11--9---8---8---8-------8---8-----------|
A|-----------------------------------------------------------------|
D|-----------------------------------------------------------------|
   1 e + a 2 e + a 3 e + a 4 e + a 1 e + a 2 e + a 3 e + a 4 e + a 

1:02
G|------------------------------------------------------------------|
D|o-----------------------------------------------------------------|
A|o---------6-------5---------------5-------6-------5---------------|
D|--0-0-0-0---0-0-0---0-0-0-6-6-6-6---0-0-0---0-0-0---0-0-0-6-6-6-6-|
    1 + 2 + 3 + 4 + 1 + 2 + 3 + 4 + 1 + 2 + 3 + 4 + 1 + 2 + 3 + 4 +

G|------------------------------------------------------------------|
D|-----6-8-----7-8-----8-10----6-8---------------------------------o|
A|-----------------8-8-----6-6-----5-5-7-8-------------------------o|
D|---------8-8-----------------------------6-6-6---7-7-7-7-7-7-3-1--|
   1 + 2 + 3 + 4 + 1 + 2 + 3 + 4 + 1 + 2 + 3 + 4 + 1 + 2 + 3 + 4 +

1:33
G|-----------------------------------------------------------------|
D|-----------------------------------------------------------------|
A|-----------------------------------------------------------------|
D|-----0-0-----0-0---------------------0-0-------------------------|
   1 + 2 + 3 + 4 + 1 + 2 + 3 + 4 + 1 + 2 + 3 + 4 + 1 + 2 + 3 + 4 +

1:41
G|---------------------------------------------|
D|---------------------------------------2-2-2-|
A|-1-------1-------1-------1---2-----1---------|
D|-----1-1-----1-1-----1-1---3-----1---1-------|
   1 + 2 + 3 + 4 + 1 + 2 + 3 + 4 + 1 + 2 + 3 + 

G|---------------------------------------------|
D|---------------------------------------2-----|
A|-1-------1-------1-------1---2-----1-1-------|
D|-----1-1-----1-1-----1-1---3-----1-----------|
   1 + 2 + 3 + 4 + 1 + 2 + 3 + 4 + 1 + 2 + 3 + 

G|---------------------------------------------|
D|---------------------------------------2-2-2-|
A|-1-------1-------1-------1---2-----1---------|
D|-----1-1-----1-1-----1-1---3-----1---1-------|
   1 + 2 + 3 + 4 + 1 + 2 + 3 + 4 + 1 + 2 + 3 + 

G|-------------------------------------------------|
D|-------------------------------------------------|
A|-1-------1-------1-------1---2-----5---5---------|
D|-----1-1-----1-1-----1-1---3-----1---------------|
   1 + 2 + 3 + 4 + 1 + 2 + 3 + 4 + 1 + 2 + 3 + 4 +

2:02
G|-----------------------------------------------------------|
D|o-------------------------------5---5-----7-7-----9-9-----o|
A|o-4-4---0---0-------------4-4-----------------------------o|x3
D|------------------3-3--------------------------------------|
    1 + 2 + 3 + 4 + 1 + 2 + 1 + 2 + 3 + 4 + 1 + 2 + 3 + 4 + 

G|---------------------------------------------------------|
D|-------------------------------5---5-----7-7-7-7-9-9-9-9-|
A|-4-4---0---0-------------4-4-----------------------------|
D|-----------------3-3-------------------------------------|
   1 + 2 + 3 + 4 + 1 + 2 + 1 + 2 + 3 + 4 + 1 + 2 + 3 + 4 +

2:29
G|------------------------------------------------------------------|
D|o-----------------------------------------------------------------|
A|o-5-------3-----------------------5-------3-------------------1-3-|
D|------0-0-----0-0-6---0-0-1-1-0-0-----0-0-----0-0-6---0-3-4-6-----|
    1 + 2 + 3 + 4 + 1 + 2 + 3 + 4 + 1 + 2 + 3 + 4 + 1 + 2 + 3 + 4 +

G|--------------------------------------------------------------|
D|-----------------------------------------------------------6-o|
A|-5-------3-----------------------5-------3-----------1-3-5---o|x3
D|-----0-0-----0-0-6---0-0-1-1-0-0-----0-0-----0-3-4-6----------|
   1 + 2 + 3 + 4 + 1 + 2 + 3 + 4 + 1 + 2 + 3 + 4 + 1 + 2 + 3 +

0:58
G|---------------------------------------------------------10--\---|
D|-9---9---9-------9---12--11--9---8---8---8-------8---8-----------|
A|-----------------------------------------------------------------|
D|-----------------------------------------------------------------|
   1 e + a 2 e + a 3 e + a 4 e + a 1 e + a 2 e + a 3 e + a 4 e + a 

rest

3:21
G|------------------------------------------------------------------|
D|o-----------------------------------------------------------------|
A|o---------6-------5---------------5-------6-------5---------------|
D|--0-0-0-0---0-0-0---0-0-0-6-6-6-6---0-0-0---0-0-0---0-0-0-6-6-6-6-|
    1 + 2 + 3 + 4 + 1 + 2 + 3 + 4 + 1 + 2 + 3 + 4 + 1 + 2 + 3 + 4 +

G|------------------------------------------------------------------|
D|-----6-8-----7-8-----8-10----6-8---------------------------------o|
A|-5-5-------------8-8-----6-6-----5-5-7-8-------------------------o|x3
D|---------8-8-----------------------------6-6-6-6-7-7-7-7-7-7-3-1--|
   1 + 2 + 3 + 4 + 1 + 2 + 3 + 4 + 1 + 2 + 3 + 4 + 1 + 2 + 3 + 4 +

4:07
G|-----------------------------------------------------------------|
D|-----------------------------------------------------------------|
A|-----------------2-2-2-2-2-2-2-2-----------------2-2-2-2-2-2-2-2-|
D|-0-0-0-0-3-3-3-3-----------------0-0-0-0-3-3-3-3-----------------|
   1 + 2 + 3 + 4 + 1 + 2 + 3 + 4 + 1 + 2 + 3 + 4 + 1 + 2 + 3 + 4 +

G|---------------------------------------------------------8--------|
D|-----------------------------------------------------6-8---8------|
A|-----------------1-1-1-1-3-3-3-3-5-5-5-5-5-5-5-5---6---------10-8-|
D|-0-0-0-0-3-3-3-3--------------------------------------------------|
   1 + 2 + 3 + 4 + 1 + 2 + 3 + 4 + 1 + 2 + 3 + 4 + 1 + 2 + 3 + 4  +

G|-----------------------------------------------------------------|
D|-----------------------------------------------------------------|
A|-----------------2-2-2-2-2-2-2-2-----------------2-2-2-2-2-2-2-2-|
D|-0-0-0-0-3-3-3-3-----------------0-0-0-0-3-3-3-3-----------------|
   1 + 2 + 3 + 4 + 1 + 2 + 3 + 4 + 1 + 2 + 3 + 4 + 1 + 2 + 3 + 4 +

G|-----------------------------------------------------------------|
D|-----------------------------------------------------------------|
A|-1-1-1-1-1-1-1-1-3-3-3-3-3-3-3-3-5-5-5-5-5-5-5-5-----------------|
D|-------------------------------------------------0-0-0-0-0-0-12\-|
   1 + 2 + 3 + 4 + 1 + 2 + 3 + 4 + 1 + 2 + 3 + 4 + 1 + 2 + 3 + 4 +

4:38
G|------------------------------------------------------------------|
D|o-----------------------------------------------------------------|
A|o---------6-------5---------------5-------6-------5---------------|
D|--0-0-0-0---0-0-0---0-0-0-6-6-6-6---0-0-0---0-0-0---0-0-0-6-6-6-6-|
    1 + 2 + 3 + 4 + 1 + 2 + 3 + 4 + 1 + 2 + 3 + 4 + 1 + 2 + 3 + 4 +

G|------------------------------------------------------------------|
D|-----6-8-----7-8-----8-10----6-8---------------------------------o|
A|-5-5-------------8-8-----6-6-----5-5-7-8-------------------------o|x3
D|---------8-8-----------------------------6-6-6-6-7-7-7-7-7-7-3-1--|
   1 + 2 + 3 + 4 + 1 + 2 + 3 + 4 + 1 + 2 + 3 + 4 + 1 + 2 + 3 + 4 +
Tabbed by Dave Vucko
Suggest correction
Creating personal tab
Creating personal tab
You can edit any tab online and save it as your Personal.

You can edit, replace or remove any tab part or add personal notes – all changes will be seen only by you.

Personal tabs can be accessed anytime from any device, even offline.
Learn more »
Give kudos to tab author, rate the tab!
1 2 3 4 5
comments
print report bad tab
2 comments total.
0 reply
6METAL6BASSIST6 [tm] 22,870 Jul 28, 2013 09:16 AM

Dude you are good..

0 reply
Brooklyn_Sounds 405 Jan 10, 2015 09:27 PM

Any chance of a guitar tab?

guest
You may want to rate the tab now too:
select rating
Wanna post a correction for this tab? Suggest correction