Oops, an error
Loading. Please wait.

Deus In Absentia bass

version 1
version 1

Whole song

Interactive

by Ghost
1,987 views 6 this week
1 commentread comment
1 2 3 4 5
x 4
add to favorites
×
Save as Personal and add changes to this tab that will be seen only by you. Learn more ›
×
You can save this tab as Personal to edit and correct it or add notes. All changes will be seen only by you. Learn more »
launch autoscroll
font size
0
reset
guitar tuner
edit
Autoscroll
slow
fast
+/-
esc
set tempo
stop
Verse 0:08
G|-----------------------------------------------------------------|
D|---2---2-----------------------------------------2---------------|
A|---------3-----3-----------------2---------2---2-----------------|
D|-----------------2-----------------------------------------------|
   1 + 2 + 3 + 4 + 1 + 2 + 3 + 4 + 1 + 2 + 3 + 4 + 1 + 2 + 3 + 4 +

G|-----------------------------------------------------------------|
D|---2---2---------------------------------------------------------|
A|---------3-----3-----------------2---------2---2-----------------|
D|-----------------2-------------------------------2---------------|
   1 + 2 + 3 + 4 + 1 + 2 + 3 + 4 + 1 + 2 + 3 + 4 + 1 + 2 + 3 + 4 +

Chorus 0:25
G|-----------------------------------------------------9-11-12---11----|
D|------------------------------------------------------------------12-|
A|---------------------------------------------------------------------|
D|-------7-7-5-5-0-0---------------------7-7-5-5-0-0-------------------|
   1 + 2 + 3 + 4 + 1 + 2 + 3 + 4 + 1 + 2 + 3 + 4 + 1 + 2 +  3  + 4  +

G|--------------------------------7h9p7-------------------------------|
D|-10-----------------------------------------------------------------|
A|------------------------------------------------------------3-------|
D|--------7-7-5-5-0-0-----------------------7-7-5-5-0-0-----------5---|
   1  + 2 + 3 + 4 + 1 + 2 + 3 + 4 +   1 + 2 + 3 + 4 + 1 + 2 + 3 + 4 +

G|---------------------------------|
D|---------------------------------|
A|---------------------------------|
D|-0-------------------------------|
   1 + 2 + 3 + 4 + 1 + 2 + 3 + 4 + 

Verse 0:47
G|-----------------------------------------------------------------|
D|---2---2-----------------------------------------2---------------|
A|---------3---3-------------------2---------2---2-----------------|
D|-----------------2-----------------------------------------------|
   1 + 2 + 3 + 4 + 1 + 2 + 3 + 4 + 1 + 2 + 3 + 4 + 1 + 2 + 3 + 4 +

G|-----------------------------------------------------2-----------|
D|---2---2-------------------------------------------4---4---2-----|
A|---------3---3-------------------2-------------2-5-------0---0---|
D|-----------------2---------------------------------------------2-|
   1 + 2 + 3 + 4 + 1 + 2 + 3 + 4 + 1 + 2 + 3 + 4 + 1 + 2 + 3 + 4 +

Chorus 1:05
G|-----------------------------------------------------9-11-12---11----|
D|------------------------------------------------------------------12-|
A|---------------------------------------------------------------------|
D|-2-----7-7-5-5-0-0---------------------7-7-5-5-0-0-------------------|
   1 + 2 + 3 + 4 + 1 + 2 + 3 + 4 + 1 + 2 + 3 + 4 + 1 + 2 +  3  + 4  +

G|--------------------------------7h9p7-------------------------------|
D|-10-----------------------------------------------------------------|
A|------------------------------------------------------------3-------|
D|--------7-7-5-5-0-0-----------------------7-7-5-5-0-0-----------5---|
   1  + 2 + 3 + 4 + 1 + 2 + 3 + 4 +   1 + 2 + 3 + 4 + 1 + 2 + 3 + 4 +

G|-----------------------------------------------------9-11-12-----12-|
D|---------------------------------------------------------------9----|
A|--------------------------------------------------------------------|
D|-------7-7-5-5-0-0---------------------7-7-5-5-0-0------------------|
   1 + 2 + 3 + 4 + 1 + 2 + 3 + 4 + 1 + 2 + 3 + 4 + 1 + 2 +  3  + 4 +

G|--------------------------------7h9p7-------------------------------|
D|-10-----------------------------------------------------------------|
A|------------------------------------------------------------3-------|
D|--------7-7-5-5-0-0-----------------------7-7-5-5-0-0-----------5---|
   1  + 2 + 3 + 4 + 1 + 2 + 3 + 4 +   1 + 2 + 3 + 4 + 1 + 2 + 3 + 4 +

G|---------------------------------|
D|---------------------------------|
A|---------------------------------|
D|-0-------------------------------|
   1 + 2 + 3 + 4 + 1 + 2 + 3 + 4 + 

Rest

Verse 1:51
G|---------9---7----------------------------5-5-----|
D|-----------7---7---------10---8---------------5---|
A|----------------------------8---8-----3-----------|
D|-0-0-0-0---------8-8-8-8----------3-3-------------|
   1 + 2 + 3 + 4 + 1 + 2 + 3  + 4 + 1 + 2 + 3 + 4 + 

G|---------9---7--------------------------------------------5-------|
D|-----------7---7---------10---8-----------3-------------------5---|
A|----------------------------8---8-------3---------3-3-3-3---3---3-|
D|-0---0-----------8---8------------3---3-----3-3-3-----------------|
   1 + 2 + 3 + 4 + 1 + 2 + 3  + 4 + 1 + 2 + 3 + 4 + 1 + 2 + 3 + 4 +

G|---------9---7------------------------------------|
D|-----------7---7---------10---8-----------3-3-3-3-|
A|----------------------------8---8-------3---------|
D|-0---0-----------8---8------------3---3-----------|
   1 + 2 + 3 + 4 + 1 + 2 + 3  + 4 + 1 + 2 + 3 + 4 + 

G|---------9---7--------------------------------------------5-------|
D|-----------7---7---------10---8-------------------------------5---|
A|----------------------------8---8-----------------3-3-3-3---3---3-|
D|-0---0-----------8---8------------3---3---3-3-3-3-----------------|
   1 + 2 + 3 + 4 + 1 + 2 + 3  + 4 + 1 + 2 + 3 + 4 + 1 + 2 + 3 + 4 +

Solo 2:21
G|-----9--/11---9--------------12---------------------------|
D|-------9----9---9---------12----10--------------------5-7-|
A|------------------3---3------------10-10-10-10-10-5-7-----|
D|-2--------------------------------------------------------|
   1 + 2 + 3  + 4 + 1 + 2 + 3  +  4  +  1  +  2  +  3 + 4 + 

G|--------/11---9-----------------17----------------------------------7-------|
D|------------9---9------------17-----------------------------------------7---|
A|------------------3---3---15-------10-10---10---10-10-10-10-5---5-----5---5-|
D|-2---2----------------------------------------------------------------------|
   1 + 2 + 3  + 4 + 1 + 2 + 3  +  4  +  1  + 2  + 3  +  4  +  1 + 2 + 3 + 4 +

G|--------/11---9---------12----12-------------------------|
D|------------9---9----------12----10------------------5-7-|
A|------------------3---3-------------10-10---10---5-7-----|
D|-2---2---------------------------------------------------|
   1 + 2 + 3  + 4 + 1 + 2 +  3  +  4  +  1  + 2  + 3 + 4 + 

G|--------/11---9-----------------17------------------------------------------|
D|------------9---9------------17-------------------------------5-7---7---542-|
A|------------------3---3---15-------10-10---10---10-10-10-10-5-----5---5-----|
D|-2---2----------------------------------------------------------------------|
   1 + 2 + 3  + 4 + 1 + 2 + 3  +  4  +  1  + 2  + 3  +  4  +  1 + 2 + 3 + 4 +

Rest

Verse 2:56
G|-----------------------------------------------------------------|
D|---2---2---------------------------------------------------------|
A|---------3-----3-----------------2---------2---2-----------------|
D|-----------------2-------------------------------2---------------|
   1 + 2 + 3 + 4 + 1 + 2 + 3 + 4 + 1 + 2 + 3 + 4 + 1 + 2 + 3 + 4 +

G|-----------------------------------------------------2-----------|
D|---2---2-------------------------------------------4---4---2-----|
A|---------3-----3-----------------2-------------2-5-------0---0---|
D|-----------------2---------------------------------------------2-|
   1 + 2 + 3 + 4 + 1 + 2 + 3 + 4 + 1 + 2 + 3 + 4 + 1 + 2 + 3 + 4 +

Chorus 3:14
G|-----------------------------------------------------9-11-12---11----|
D|------------------------------------------------------------------12-|
A|---------------------------------------------------------------------|
D|-2-----7-7-5-5-0-0---------------------7-7-5-5-0-0-------------------|
   1 + 2 + 3 + 4 + 1 + 2 + 3 + 4 + 1 + 2 + 3 + 4 + 1 + 2 +  3  + 4  +

G|--------------------------------7h9p7-------------------------------|
D|-10-----------------------------------------------------------------|
A|------------------------------------------------------------3-------|
D|--------7-7-5-5-0-0-----------------------7-7-5-5-0-0-----------5---|
   1  + 2 + 3 + 4 + 1 + 2 + 3 + 4 +   1 + 2 + 3 + 4 + 1 + 2 + 3 + 4 +

G|-----------------------------------------------------9-11-12---11----|
D|------------------------------------------------------------------12-|
A|---------------------------------------------------------------------|
D|-------7-7-5-5-0-0---------------------7-7-5-5-0-0-------------------|
   1 + 2 + 3 + 4 + 1 + 2 + 3 + 4 + 1 + 2 + 3 + 4 + 1 + 2 +  3  + 4  +

G|--------------------------------7h9p7h9p7h9p7---------------------------|
D|-10---------------------------------------------------------------------|
A|----------------------------------------------------------------3-------|
D|--------7-7-5-5-0-0---------------------------7-7-5-5-0-0-----------5---|
   1  + 2 + 3 + 4 + 1 + 2 + 3 + 4 +   1   +   2 + 3 + 4 + 1 + 2 + 3 + 4 +

G|---------------------------------|
D|---------------------------------|
A|---------------------------------| 
D|-0(hold)-------------------------|
   1 + 2 + 3 + 4 + 1 + 2 + 3 + 4 + 

Outro Cord progression 4:03
G|-------------------------------------------------|
D|-------------------------------------------------|
A|-----------------1-------------------------3-----|
D|-0-------------------------------3---------------|
B|-------------------------------------------------|

G|-----------------------------------------------------------------|
D|-----------------------------------------------------------------|
A|-5---------------1-----------------------------------------------|
D|---------------------------------3-------------------------------|
B|-------------------------------------------------1(hold)---------|


4:29
G|-----------------------------------------------------------------|
D|-----------------------------------------------------------------|
A|-----------------------------------------------------------------|
D|/7---------------2--------------/5------/9-------5-------4---\---|
B|-----------------------------------------------------------------|

G|-----------------------------------------------------------------|
D|-----------------------------------------------------------------|
A|-----------------------------------------------------------------|
D|-----------------------------------------------------------------|
B|-1---------------r-----------------------------------------------|

Tabbed by Dave Vucko
Requested by: CebeBee13

            
            
Suggest correction
Creating personal tab
Creating personal tab
You can edit any tab online and save it as your Personal.

You can edit, replace or remove any tab part or add personal notes – all changes will be seen only by you.

Personal tabs can be accessed anytime from any device, even offline.
Learn more »
comments
print report bad tab
1 comment total.
0 reply
RockbassHM 10 Sep 05, 2017 02:26 PM

Awesome song song with some tricky timings, but your made it very easy to play! Good job!

guest
You may want to rate the tab now too:
select rating
Wanna post a correction for this tab? Suggest correction