Oops, an error
Loading. Please wait.

Elizabeth bass

version 1
version 1

Whole song

Interactive

by Ghost
4,464 views 27 this week
no commentswrite comment
1 2 3 4 5
x 3
add to favorites
×
Save as Personal and add changes to this tab that will be seen only by you. Learn more ›
×
You can save this tab as Personal to edit and correct it or add notes. All changes will be seen only by you. Learn more »
launch autoscroll
font size
0
reset
guitar tuner
backing track
0:00
0:00
edit
Autoscroll
slow
fast
+/-
esc
set tempo
stop
Re-wrote this tab after finding multiple errors

G|---------------------------------------------------------------------------------|
D|---------------------------------------------------------------------------------|
A|-6-------------------3-/-5-------6-\-5-------6-/-8-------8---4-------------------|
D|-----------------0-----------0-0---------0-----------0---------------------------|
   3 e + a 4 e + a 1 e + a 2 e + a 3 e + a 4 e + a 1 e + a 2 e + a 3 e + a 4 e + a

G|-----------------------------------------------------------------|
D|-----------------------------------------------------------------|
A|-----5-----------5-----------------------------------------------|
D|-0-------8---0-0-----6---0-0-0-0-6-9-6-9-6-------3-4-3-----------|
   1 e + a 2 e + a 3 e + a 4 e + a 1 e + a 2 e + a 3 e + a 4 e + a

G|-------------------------------------------------------------------------------------------------|
D|-------------------------------------------------------------------------------------------------|
A|-----3-/-5-------6-\-5-------6-/-8-------8---4---------------------------------------------------|
D|-0-----------0-0---------0-----------0---------------------------4-------------------------------|
   1 e + a 2 e + a 3 e + a 4 e + a 1 e + a 2 e + a 3 e + a 4 e + a 1 e + a 2 e + a 3 e + a 4 e + a

0:13
G|-----------------------------------------------------------------|
D|-----------------------------------------------------------------|
A|-----------------------------------------------------------------|
D|-4-------4-4-4-4-4---6---3---5---4-------4-------4-4-4-4-4-------|
   1 e + a 2 e + a 3 e + a 4 e + a 1 e + a 2 e + a 3 e + a 4 e + a

G|-----------------------------------------------------------------|
D|-----------------------------------------------------------------|
A|-----------------------------------------------------------------|
D|-4-------6-------3-------5-------4-------4-------4-4-4-4-4-------|
   1 e + a 2 e + a 3 e + a 4 e + a 1 e + a 2 e + a 3 e + a 4 e + a

G|-----------------------------------------------------------------|
D|-----------------------------------------------------------------|
A|-----------------------------------------------------------------|
D|-4-------4-4-4-4-4---6---3---5---4-------4-------4-4-4-4-4-------|
   1 e + a 2 e + a 3 e + a 4 e + a 1 e + a 2 e + a 3 e + a 4 e + a

G|-----------------------------------------------------------------|
D|-----------------------------------------------------------------|
A|-----------------------------------------------------------------|
D|-4---4-4-6-------3-------5-------6---6-6-6-6-6-6-6-6-6-6-7---7---|
   1 e + a 2 e + a 3 e + a 4 e + a 1 e + a 2 e + a 3 e + a 4 e + a

G|-----------------------------------------------------------------|
D|-----------------------------------------------------------------|
A|-----------------------------------------------------------------|
D|-6---6-6-7-------0-------8-------4-------4-------4-4-4-4-4-------|
   1 e + a 2 e + a 3 e + a 4 e + a 1 e + a 2 e + a 3 e + a 4 e + a

G|-----------------------------------------------------------------|
D|-----------------------------------------------------------------|
A|-----------------------------------------------------------------|
D|-4-------4-4-4-4-4---6---3---5---4-------4-------4-4-4-4-4-------|
   1 e + a 2 e + a 3 e + a 4 e + a 1 e + a 2 e + a 3 e + a 4 e + a

G|-----------------------------------------------------------------|
D|-----------------------------------------------------------------|
A|-----------------------------------------------------------------|
D|-4---4-4-6-------3-------5-------4-------4-------4-4-4-4-4-------|
   1 e + a 2 e + a 3 e + a 4 e + a 1 e + a 2 e + a 3 e + a 4 e + a

G|-----------------------------------------------------------------|
D|-----------------------------------------------------------------|
A|-----------------------------------------------------------------|
D|-4-------4-4-4-4-4---6---3---5---6---6-6-6-6-6-6-6-6-6-6-7---7---|
   1 e + a 2 e + a 3 e + a 4 e + a 1 e + a 2 e + a 3 e + a 4 e + a

G|-----------------------------------------------------------------|
D|-----------------------------------------------------------------|
A|-----------------------------------------------------------------|
D|-6---6-6-7-------0-------8-------4-------4-------4-4-4-4-4-------|
   1 e + a 2 e + a 3 e + a 4 e + a 1 e + a 2 e + a 3 e + a 4 e + a

G|-----------------------------------------------------------------|
D|-----------------------------------------------------------------|
A|-----------------------------------------------------------------|
D|-4---4-4-6-------3-------5-------1-------------------------------|
   1 e + a 2 e + a 3 e + a 4 e + a 1 e + a 2 e + a 3 e + a 4 e + a

0:51 Chorus
G|-----------------------------------------------------------------|
D|-8-----------8---8-------8-------8-----------8---8-------8-------|
A|-----------------------------------------------------------------|
D|-----------------------------------------------------------------|
   1 e + a 2 e + a 3 e + a 4 e + a 1 e + a 2 e + a 3 e + a 4 e + a

G|-----------------------------------------------------------------|
D|-8-----------8---8-------8---------------------------------------|
A|---------------------------------8-----------8---8-------8-------|
D|-----------------------------------------------------------------|
   1 e + a 2 e + a 3 e + a 4 e + a 1 e + a 2 e + a 3 e + a 4 e + a

G|-----------------------------------------------------------------|
D|-8-----------8---8-------8---------------------------------------|
A|---------------------------------9-----------9---9-------9-------|
D|-----------------------------------------------------------------|
   1 e + a 2 e + a 3 e + a 4 e + a 1 e + a 2 e + a 3 e + a 4 e + a

G|-----------------------------------------------------------------|
D|-----------------------------------------------------------------|
A|-4-----------4---4-------4-------8-------8---\---6-------6---\---|
D|-------------------------------------10--------------8-----------|
   1 e + a 2 e + a 3 e + a 4 e + a 1 e + a 2 e + a 3 e + a 4 e + a

G|-----------------------------------------------------------------|
D|-----------------------------------------------------------------|
A|-----------------------------------------------------------------|
D|-8-----------8---8-------8-------4-----------4---4-------4-------|
   1 e + a 2 e + a 3 e + a 4 e + a 1 e + a 2 e + a 3 e + a 4 e + a

G|-----------------------------------------------------------------|
D|-----------------------------------------3---3-----------3-------|
A|-3-----------3---3---4---3---------------------------------------|
D|-----------------------------4---3---------------3---------------|
   1 e + a 2 e + a 3 e + a 4 e + a 1 e + a 2 e + a 3 e + a 4 e + a

G|-----------------------------------------------------------------|
D|-----------------------------------------------------------------|
A|-----------------------------------------------------------------|
D|-8-----------8---8-------8-------4-----------4---4-----------4---|
   1 e + a 2 e + a 3 e + a 4 e + a 1 e + a 2 e + a 3 e + a 4 e + a

G|-------------------------------------------------------------------------------------------------|
D|-------------------------------------------------------------------------------------------------|
A|-4-----------4---4-------4-----------------------1---3---4---3-----------------------------------|
D|---------------------------------3-----------3-------------------3-------------------------------|
   1 e + a 2 e + a 3 e + a 4 e + a 1 e + a 2 e + a 3 e + a 4 e + a 1 e + a 2 e + a 3 e + a 4 e + a

1:22
G|-----------------------------------------------------------------|
D|-----------------------------------------------------------------|
A|-----------------------------------------------------------------|
D|-4-------6-------3-------5-------6---6-6-6-6-6---6-6-6-6-7-------|
   1 e + a 2 e + a 3 e + a 4 e + a 1 e + a 2 e + a 3 e + a 4 e + a

G|-------------------------------------------------------------------|
D|o-----------------------------------------------------------------o|
A|o-----------------------------------------------------------------o|x3
D|--6---6-6-7-----7-0-0---0-7-7-----6---6-6-6-6-6---6-6-6-6-7--------|
    1 e + a 2 e + a 3 e + a 4 e + a 1 e + a 2 e + a 3 e + a 4 e + a

G|-------------------------------------------------------------3h5-|
D|---------------------------------------------------------2h4-----|
A|-----------------------------------------------------------------|
D|-6---6-6-7-------0-------7-------2-------2-------2---------------|
   1 e + a 2 e + a 3 e + a 4 e + a 1 e + a 2 e + a 3 e + a 4 e + a

G|--------------------------------------------------------------3h5--|
D|o---------------------------------------------------------2h4-----o|
A|o-----------------------------------------------------------------o|x3
D|--2-------2-------2---4---1---3---2-------2-------2----------------|
    1 e + a 2 e + a 3 e + a 4 e + a 1 e + a 2 e + a 3 e + a 4 e + a

G|-----------------------------------------------------------------|
D|---------------------------------2-------4-------1-------3-------|
A|-----------------------------------------------------------------|
D|-2-------4-------1-------3---------------------------------------|
   1 e + a 2 e + a 3 e + a 4 e + a 1 e + a 2 e + a 3 e + a 4 e + a

1:56
G|-----------------------------------------------------------------|
D|-----------------------------------------------------------------|
A|-----3-/-5-------6-\-5-------6-/-8-------8---9-------------------|
D|-0-----------0-----------0-----------0---------------------------|
   1 e + a 2 e + a 3 e + a 4 e + a 1 e + a 2 e + a 3 e + a 4 e + a

G|-----------------------------------------------------------------|
D|-----------------------------------------------------------------|
A|-----5-----------5-----------------------------------------------|
D|-0-------8---0-0-----6---0-0-0-0-6-9-6-9-6-------3-4-3-----------|
   1 e + a 2 e + a 3 e + a 4 e + a 1 e + a 2 e + a 3 e + a 4 e + a

G|-----------------------------------------------------------------|
D|-----------------------------------------------------------------|
A|-----3-/-5-------6-\-5-------6-/-8-------8---9-------------------|
D|-0-----------0-----------0-----------0---------------------------|
   1 e + a 2 e + a 3 e + a 4 e + a 1 e + a 2 e + a 3 e + a 4 e + a

G|-----------------------------------------------------------------|
D|-----------------------------------------------------------------|
A|-1-1-1-1-1-1-3-3-3-3-3-3-4-4-4-4-8-8-8-8-8-8-7-7-7-7-7-7-6-------|
D|-----------------------------------------------------------------|
   1 e + a 2 e + a 3 e + a 4 e + a 1 e + a 2 e + a 3 e + a 4 e + a

2:11
G|-----------------------------------------------------------------|
D|-----------------------------------------------------------------|
A|-----3-/-5-------6-\-5-------6-/-8-------------------------------|
D|-0-----------0-----------0-----------0---7---8-------------------|
   1 e + a 2 e + a 3 e + a 4 e + a 1 e + a 2 e + a 3 e + a 4 e + a

G|-----------------------------------------------------------------|
D|-----------------------------------------------------------------|
A|-----------------------------------------------------------------|
D|-------------------------8---\---4-------6-------3-------5-------|
   1 e + a 2 e + a 3 e + a 4 e + a 1 e + a 2 e + a 3 e + a 4 e + a

G|-----------------------------5h7---------------------------------|
D|-------------------------4h6-------------------------------------|
A|-----------------------------------------------------------------|
D|-4-------4-------4---------------4-------4-------4---6---3---5---|
   1 e + a 2 e + a 3 e + a 4 e + a 1 e + a 2 e + a 3 e + a 4 e + a

G|-----------------------------5h7---------------------------------|
D|-------------------------4h6-------------------------------------|
A|-----------------------------------------------------------------|
D|-4-------4-------4---------------4---4-4-6-------3-------5-------|
   1 e + a 2 e + a 3 e + a 4 e + a 1 e + a 2 e + a 3 e + a 4 e + a

G|-----------------------------------------------------------------|
D|-----------------------------------------------------------------|
A|-----------------------------------------------------------------|
D|-6---6-6-6-6-6-6-6-6-6-6-7---7---6---6-6-7-------0-------8-------|
   1 e + a 2 e + a 3 e + a 4 e + a 1 e + a 2 e + a 3 e + a 4 e + a

G|-----------------------------5h7-----------------------------------------------------------------|
D|-------------------------4h6---------------------------------------------------------------------|
A|-------------------------------------------------------------------------------------------------|
D|-4-------4-------4---------------4---4-4-6-------3-------5-------1-------------------------------|
   1 e + a 2 e + a 3 e + a 4 e + a 1 e + a 2 e + a 3 e + a 4 e + a 1 e + a 2 e + a 3 e + a 4 e + a

2:36
G|-----------------------------------------------------------------|
D|-8-----------8---8---------------8-----------8---8---------------|
A|-----------------------------------------------------------------|
D|-----------------------------------------------------------------|
   1 e + a 2 e + a 3 e + a 4 e + a 1 e + a 2 e + a 3 e + a 4 e + a

G|-----------------------------------------------------------------|
D|-8-----------8---8-----------------------------------------------|
A|---------------------------------8-----------8---8---------------|
D|-----------------------------------------------------------------|
   1 e + a 2 e + a 3 e + a 4 e + a 1 e + a 2 e + a 3 e + a 4 e + a

G|-----------------------------------------------------------------|
D|-8-----------8---8-----------------------------------------------|
A|---------------------------------9-----------9---9---------------|
D|-----------------------------------------------------------------|
   1 e + a 2 e + a 3 e + a 4 e + a 1 e + a 2 e + a 3 e + a 4 e + a

G|-----------------------------------------------------------------|
D|-----------------------------------------------------------------|
A|-4-----------4---4-------4-------8-------8---\---6-------6---\---|
D|-------------------------------------10--------------8-----------|
   1 e + a 2 e + a 3 e + a 4 e + a 1 e + a 2 e + a 3 e + a 4 e + a

2:50
G|-----------------------------------------------------------------|
D|-----------------------------------------------------------------|
A|-----------------------------------------------------------------|
D|-8-----------4---8-------8-------4-----------4---4-------4-------|
   1 e + a 2 e + a 3 e + a 4 e + a 1 e + a 2 e + a 3 e + a 4 e + a

G|-----------------------------------------------------------------|
D|-----------------------------------------------------------------|
A|-3-----------3---3---4---3---------------------------------------|
D|-----------------------------4---3-----------3---3---1---3---4---|
   1 e + a 2 e + a 3 e + a 4 e + a 1 e + a 2 e + a 3 e + a 4 e + a

2:58
G|-----------------------------------------------------------------|
D|-------------------------------------------------4---4---3-------|
A|-------------------------------------------------------------6---|
D|-8-----------4---8-------8-------4-----------4-------------------|
   1 e + a 2 e + a 3 e + a 4 e + a 1 e + a 2 e + a 3 e + a 4 e + a

G|-----------------------------------------------------------------|
D|-----------------------------------------------------------------|
A|-4-----------4---4-------4-------8-------8---\---3---4---6---3---|
D|-------------------------------------10--------------------------|
   1 e + a 2 e + a 3 e + a 4 e + a 1 e + a 2 e + a 3 e + a 4 e + a

3:06
G|-----------------------------------------------------------------|
D|-----------------------------------------------------------------|
A|-5-----------5---5---------------1-----------1---1-------1---1---|
D|-----------------------------------------------------------------|
   1 e + a 2 e + a 3 e + a 4 e + a 1 e + a 2 e + a 3 e + a 4 e + a

G|-----------------------------------------------------------------|
D|-----------------------------------------------------------------|
A|---------------------------------0-----------0---0-------0---/---|
D|-2-----------2---2-----------------------------------------------|
   1 e + a 2 e + a 3 e + a 4 e + a 1 e + a 2 e + a 3 e + a 4 e + a

G|-----------------------------------------------------------------|
D|-----------------------------------------------------------------|
A|-5-----------5---5-------7---\---1-----------1---1-------1---1---|
D|-----------------------------------------------------------------|
   1 e + a 2 e + a 3 e + a 4 e + a 1 e + a 2 e + a 3 e + a 4 e + a

G|-----------------------------------------------------------------|
D|-----------------------------------------------------------------|
A|---------------------------------0-----------0---0-------0---/---|
D|-3-------3---3---3-------3---------------------------------------|
   1 e + a 2 e + a 3 e + a 4 e + a 1 e + a 2 e + a 3 e + a 4 e + a

3:21
G|-----------------------------------------------------------------|
D|-----------------------------------------------------------------|
A|-5-----------5---5-------7---\---1-----------1---1-------1---8---|
D|-----------------------------------------------------------------|
   1 e + a 2 e + a 3 e + a 4 e + a 1 e + a 2 e + a 3 e + a 4 e + a

G|-----------------------------------------------------------------|
D|-----------------------------------------------------------------|
A|-7-----------7---7-------7---\---0-----------0-------------------|
D|-------------------------------------------------5-----------5---|
   1 e + a 2 e + a 3 e + a 4 e + a 1 e + a 2 e + a 3 e + a 4 e + a

G|-----------------------------------------------------------------|
D|-----------------------------------------------------------------|
A|-5-----------5---5-------5---7---1-----------1---1-------1---1---|
D|-----------------------------------------------------------------|
   1 e + a 2 e + a 3 e + a 4 e + a 1 e + a 2 e + a 3 e + a 4 e + a

G|-----------------------------------------------------------------|
D|-----------------------------------------------------------------|
A|---------------------------------0-----------0---0-------0-------|
D|-3-----------3---3-------3---------------------------------------|
   1 e + a 2 e + a 3 e + a 4 e + a 1 e + a 2 e + a 3 e + a 4 e + a

3:36
G|-----------------------------------------------------------------|
D|-----------------------------------------------------------------|
A|---------------------------------1-----------1---1-------1---1---|
D|-0-----------0---0-----------0-----------------------------------|
   1 e + a 2 e + a 3 e + a 4 e + a 1 e + a 2 e + a 3 e + a 4 e + a

G|-----------------------------------------------------------------|
D|-----------------------------------------------------------------|
A|---------------------------------0-----------0---0-------0---0---|
D|-2-----------2---2-----------2-----------------------------------|
   1 e + a 2 e + a 3 e + a 4 e + a 1 e + a 2 e + a 3 e + a 4 e + a

G|-----------------------------------------------------------------|
D|-----------------------------------------------------------------|
A|-5-----------5---5-----------5---1-----------1---1-------1-------|
D|-----------------------------------------------------------------|
   1 e + a 2 e + a 3 e + a 4 e + a 1 e + a 2 e + a 3 e + a 4 e + a

G|-----------------------------------------------------------------|
D|-----------------------------------------------------------------|
A|-7-----------7---7---7---7---7---6-----------6---6---6---6---\---|
D|-----------------------------------------------------------------|
   1 e + a 2 e + a 3 e + a 4 e + a 1 e + a 2 e + a 3 e + a 4 e + a

G|-----------------------------------------------------------------|
D|-----------------------------------------------------------------|
A|-----3-/-5-------6-\-5-------6-/-8-------8---4-------------------|
D|-0-----------0-0---------0-----------0---------------------------|
   1 e + a 2 e + a 3 e + a 4 e + a 1 e + a 2 e + a 3 e + a 4 e + a
Tabbed by Dave Vucko


G|---------------------------------------------------------------------------------|
D|---------------------------------------------------------------------------------|
A|-6-------------------3-/-5-------6-\-5-------6-/-8-------8---4-------------------|
D|-----------------0-----------0-0---------0-----------0---------------------------|
   3 e + a 4 e + a 1 e + a 2 e + a 3 e + a 4 e + a 1 e + a 2 e + a 3 e + a 4 e + a

G|-----------------------------------------------------------------|
D|-----------------------------------------------------------------|
A|-----5-----------5-----------------------------------------------|
D|-0-------8---0-0-----6-------0-0-6-9-6-9-6-------3-4-3-----------|
   1 e + a 2 e + a 3 e + a 4 e + a 1 e + a 2 e + a 3 e + a 4 e + a

G|-------------------------------------------------------------------------------------------------|
D|-------------------------------------------------------------------------------------------------|
A|-----3-/-5-------6-\-5-------6-/-8-------8---4---------------------------------------------------|
D|-0-----------0-0---------0-----------0-----------------------------------------------------------|
   1 e + a 2 e + a 3 e + a 4 e + a 1 e + a 2 e + a 3 e + a 4 e + a 1 e + a 2 e + a 3 e + a 4 e + a

0:13
G|-----------------------------------------------------------------|
D|-----------------------------------------------------------------|
A|-------------------------------------------------------------3h5-|
D|-4---4-4-4-4-4-4-4---6---3---5---4---4-4-4-4-4---4-4-4-4-4h6-----|
   1 e + a 2 e + a 3 e + a 4 e + a 1 e + a 2 e + a 3 e + a 4 e + a

G|-----------------------------------------------------------------|
D|-----------------------------------------------------------------|
A|-------------------------------------------------------------3h5-|
D|-4---4-4-6-------3-------5-------4---4-4-4-4-4---4-4-4-4-4h6-----|
   1 e + a 2 e + a 3 e + a 4 e + a 1 e + a 2 e + a 3 e + a 4 e + a

G|-----------------------------------------------------------------|
D|-----------------------------------------------------------------|
A|-------------------------------------------------------------3h5-|
D|-4---4-4-4-4-4-4-4---6---3---5---4---4-4-4-4-4---4-4-4-4-4h6-----|
   1 e + a 2 e + a 3 e + a 4 e + a 1 e + a 2 e + a 3 e + a 4 e + a

G|-----------------------------------------------------------------|
D|-----------------------------------------------------------------|
A|-----------------------------------------------------------------|
D|-4---4-4-6-------3-------5-------6---6-6-6-6-6---6-6-6-6-7-------|
   1 e + a 2 e + a 3 e + a 4 e + a 1 e + a 2 e + a 3 e + a 4 e + a

G|-----------------------------------------------------------------|
D|-----------------------------------------------------------------|
A|-------------------------------------------------------------3h5-|
D|-6---6-6-7-------0-------8-------4---4-4-4-4-4---4-4-4-4-4h6-----|
   1 e + a 2 e + a 3 e + a 4 e + a 1 e + a 2 e + a 3 e + a 4 e + a

G|-----------------------------------------------------------------|
D|-----------------------------------------------------------------|
A|-------------------------------------------------------------3h5-|
D|-4---4-4-4-4-4-4-4---6---3---5---4---4-4-4-4-4---4-4-4-4-4h6-----|
   1 e + a 2 e + a 3 e + a 4 e + a 1 e + a 2 e + a 3 e + a 4 e + a

G|-----------------------------------------------------------------|
D|-----------------------------------------------------------------|
A|-------------------------------------------------------------3h5-|
D|-4---4-4-6-------3-------5-------4---4-4-4-4-4---4-4-4-4-4h6-----|
   1 e + a 2 e + a 3 e + a 4 e + a 1 e + a 2 e + a 3 e + a 4 e + a

G|-----------------------------------------------------------------|
D|-----------------------------------------------------------------|
A|-----------------------------------------------------------------|
D|-4---4-4-4-4-4-4-4---6---3---5---6---6-6-6-6-6---6-6-6-6-7-------|
   1 e + a 2 e + a 3 e + a 4 e + a 1 e + a 2 e + a 3 e + a 4 e + a

G|-----------------------------------------------------------------|
D|-----------------------------------------------------------------|
A|-------------------------------------------------------------3h5-|
D|-6---6-6-7-------0-------8-------4---4-4-4-4-4---4-4-4-4-4h6-----|
   1 e + a 2 e + a 3 e + a 4 e + a 1 e + a 2 e + a 3 e + a 4 e + a

G|-----------------------------------------------------------------|
D|-----------------------------------------------------------------|
A|-----------------------------------------------------------------|
D|-4---4-4-6-------3-------5-------1-------------------------------|
   1 e + a 2 e + a 3 e + a 4 e + a 1 e + a 2 e + a 3 e + a 4 e + a

0:51 Chorus
G|-----------------------------------------------------------------|
D|-----------------------------------------------------------------|
A|-----------------------------------------------------------------|
D|-8-----------8---8---------------4-----------4---4---------------|
   1 e + a 2 e + a 3 e + a 4 e + a 1 e + a 2 e + a 3 e + a 4 e + a

G|-----------------------------------------------------------------|
D|-----------------------------------------------------------------|
A|-3-----------3---3-----------------------------------------------|
D|---------------------------------3-----------3---3---------------|
   1 e + a 2 e + a 3 e + a 4 e + a 1 e + a 2 e + a 3 e + a 4 e + a

G|-----------------------------------------------------------------|
D|-----------------------------------------------------------------|
A|---------------------------------9-----------9---9-------9-------|
D|-8-----------8---8-------8---------------------------------------|
   1 e + a 2 e + a 3 e + a 4 e + a 1 e + a 2 e + a 3 e + a 4 e + a

G|-----------------------------------------------------------------|
D|-----------------------------------------------------------------|
A|-4-----------4---4---4---4-------8-------8-------6-------6-------|
D|-------------------------------------10------10------8-------8---|
   1 e + a 2 e + a 3 e + a 4 e + a 1 e + a 2 e + a 3 e + a 4 e + a

G|-----------------------------------------------------------------|
D|-----------------------------------------------------------------|
A|-----------------------------------------------------------------|
D|-8-----------8---8-------8-------4-----------4---4-------4-------|
   1 e + a 2 e + a 3 e + a 4 e + a 1 e + a 2 e + a 3 e + a 4 e + a

G|-----------------------------------------------------------------|
D|-----------------------------------------3---3-----------3-------|
A|-3-----------3---3---4---3---------------------------------------|
D|-----------------------------4---3---------------3---------------|
   1 e + a 2 e + a 3 e + a 4 e + a 1 e + a 2 e + a 3 e + a 4 e + a

G|-----------------------------------------------------------------|
D|-----------------------------------------------------------------|
A|-----------------------------------------------------------------|
D|-8-----------8---8---------------4-----------4---4-----------4---|
   1 e + a 2 e + a 3 e + a 4 e + a 1 e + a 2 e + a 3 e + a 4 e + a

G|-------------------------------------------------------------------------------------------------|
D|-------------------------------------------------------------------------------------------------|
A|-4-----------4---4-------4-----------------------1---3---4---3-----------------------------------|
D|---------------------------------3-----------3-------------------3-------------------------------|
   1 e + a 2 e + a 3 e + a 4 e + a 1 e + a 2 e + a 3 e + a 4 e + a 1 e + a 2 e + a 3 e + a 4 e + a

1:22
G|-----------------------------------------------------------------|
D|-----------------------------------------------------------------|
A|-----------------------------------------------------------------|
D|-4-------6-------3-------5-------6---6-6-6-6-6---6-6-6-6-7-------|
   1 e + a 2 e + a 3 e + a 4 e + a 1 e + a 2 e + a 3 e + a 4 e + a

G|-------------------------------------------------------------------|
D|o-----------------------------------------------------------------o|
A|o-----------------------------------------------------------------o|x3
D|--6---6-6-7-------0-------7-------6---6-6-6-6-6---6-6-6-6-7--------|
    1 e + a 2 e + a 3 e + a 4 e + a 1 e + a 2 e + a 3 e + a 4 e + a

G|-----------------------------------------------------------------|
D|-----------------------------------------------------------------|
A|-------------------------------------------------------------1h3-|
D|-6---6-6-7-------0-------7-------2---2-2-2-2-2---2-2-2-2-2h4-----|
   1 e + a 2 e + a 3 e + a 4 e + a 1 e + a 2 e + a 3 e + a 4 e + a

G|-------------------------------------------------------------------|
D|o-----------------------------------------------------------------o|
A|o-------------------------------------------------------------1h3-o|x3
D|--2---2-2-2-2-2-2-2---4---1---3---2---2-2-2-2-2---2-2-2-2-2h4------|
    1 e + a 2 e + a 3 e + a 4 e + a 1 e + a 2 e + a 3 e + a 4 e + a

G|-----------------------------------------------------------------|
D|-----------------------------------------------------------------|
A|-----------------------------------------------------------------|
D|-2-------4-------1-------3-------2-------4-------1-------3-------|
   1 e + a 2 e + a 3 e + a 4 e + a 1 e + a 2 e + a 3 e + a 4 e + a

1:56
G|-----------------------------------------------------------------|
D|-----------------------------------------------------------------|
A|-----3-/-5-------6-\-5-------6-/-8-------6---8-------------------|
D|-0-----------0-----------0-----------0---------------------------|
   1 e + a 2 e + a 3 e + a 4 e + a 1 e + a 2 e + a 3 e + a 4 e + a

G|-----------------------------------------------------------------|
D|-----------------------------------------------------------------|
A|-----5-----------5-----------------------------------------------|
D|-0-------8---0-0-----6-------0-0-6-9-6-9-6-------3-4-3-----------|
   1 e + a 2 e + a 3 e + a 4 e + a 1 e + a 2 e + a 3 e + a 4 e + a

G|-----------------------------------------------------------------|
D|-----------------------------------------------------------------|
A|-----3-/-5-------6-\-5-------6-/-8-------6---8-------------------|
D|-0-----------0-----------0-----------0---------------------------|
   1 e + a 2 e + a 3 e + a 4 e + a 1 e + a 2 e + a 3 e + a 4 e + a

G|-----------------------------------------------------------------|
D|-----------------------------------------------------------------|
A|-1-1-1-1-1-1-3-3-3-3-3-3-4-4-4-4-8-8-8-8-8-8-7-7-7-7-7-7-6-------|
D|-----------------------------------------------------------------|
   1 e + a 2 e + a 3 e + a 4 e + a 1 e + a 2 e + a 3 e + a 4 e + a

2:11
G|-----------------------------------------------------------------|
D|-----------------------------------------------------------------|
A|-----3-/-5-------6-\-5-------6-/-8-------------------------------|
D|-0-----------0-----------0-----------0---6---8-------------------|
   1 e + a 2 e + a 3 e + a 4 e + a 1 e + a 2 e + a 3 e + a 4 e + a

G|-----------------------------------------------------------------|
D|-----------------------------------------------------------------|
A|-----------------------------------------------------------------|
D|-------------------------8---\---4-------6-------3-------5-------|
   1 e + a 2 e + a 3 e + a 4 e + a 1 e + a 2 e + a 3 e + a 4 e + a

G|-----------------------------------------------------------------|
D|-----------------------------------------------------------------|
A|-----------------------------3h5---------------------------------|
D|-4---4-4-4-4-4---4-4-4-4-4h6-----4---4-4-4-4-4-4-4---6---3---5---|
   1 e + a 2 e + a 3 e + a 4 e + a 1 e + a 2 e + a 3 e + a 4 e + a

G|-----------------------------------------------------------------|
D|-----------------------------------------------------------------|
A|-----------------------------3h5---------------------------------|
D|-4---4-4-4-4-4---4-4-4-4-4h6-----4---4-4-6-------3-------5-------|
   1 e + a 2 e + a 3 e + a 4 e + a 1 e + a 2 e + a 3 e + a 4 e + a

G|-----------------------------------------------------------------|
D|-----------------------------------------------------------------|
A|-----------------------------------------------------------------|
D|-6---6-6-6-6-6---6-6-6-6-7-------6---6-6-7-------0-------8-------|
   1 e + a 2 e + a 3 e + a 4 e + a 1 e + a 2 e + a 3 e + a 4 e + a

G|-------------------------------------------------------------------------------------------------|
D|-------------------------------------------------------------------------------------------------|
A|-----------------------------3h5-----------------------------------------------------------------|
D|-4---4-4-4-4-4---4-4-4-4-4h6-----4---4-4-6-------3-------5-------1-------------------------------|
   1 e + a 2 e + a 3 e + a 4 e + a 1 e + a 2 e + a 3 e + a 4 e + a 1 e + a 2 e + a 3 e + a 4 e + a

2:36
G|-----------------------------------------------------------------|
D|-----------------------------------------------------------------|
A|-----------------------------------------------------------------|
D|-8-----------8---8---------------4-----------4---4---------------|
   1 e + a 2 e + a 3 e + a 4 e + a 1 e + a 2 e + a 3 e + a 4 e + a

G|-----------------------------------------------------------------|
D|-----------------------------------------------------------------|
A|-3-----------3---3-----------------------------------------------|
D|---------------------------------3-----------3---3---------------|
   1 e + a 2 e + a 3 e + a 4 e + a 1 e + a 2 e + a 3 e + a 4 e + a

G|-----------------------------------------------------------------|
D|-----------------------------------------------------------------|
A|---------------------------------9-----------9---9---------------|
D|-8-----------8---8-----------------------------------------------|
   1 e + a 2 e + a 3 e + a 4 e + a 1 e + a 2 e + a 3 e + a 4 e + a

G|-----------------------------------------------------------------|
D|-----------------------------------------------------------------|
A|-4-----------4---4-------4-------8-------8-------6-------6-------|
D|-------------------------------------10--------------8-------8---|
   1 e + a 2 e + a 3 e + a 4 e + a 1 e + a 2 e + a 3 e + a 4 e + a

2:50
G|-----------------------------------------------------------------|
D|-----------------------------------------------------------------|
A|-----------------------------------------------------------------|
D|-8-----------4---8-------8-------4-----------4---4-------4-------|
   1 e + a 2 e + a 3 e + a 4 e + a 1 e + a 2 e + a 3 e + a 4 e + a

G|-----------------------------------------------------------------|
D|-----------------------------------------------------------------|
A|-3-----------3---3---4---3---------------------------------------|
D|-----------------------------4---3-----------3---3---1---3---4---|
   1 e + a 2 e + a 3 e + a 4 e + a 1 e + a 2 e + a 3 e + a 4 e + a

2:58
G|-----------------------------------------------------------------|
D|-------------------------------------------------4---4---3-------|
A|-------------------------------------------------------------6---|
D|-8-----------4---8-------8-------4-----------4-------------------|
   1 e + a 2 e + a 3 e + a 4 e + a 1 e + a 2 e + a 3 e + a 4 e + a

G|-----------------------------------------------------------------|
D|-----------------------------------------------------------------|
A|-4-----------4---4-------4-------8-------8-------8---6---4---6---|
D|-------------------------------------10--------------------------|
   1 e + a 2 e + a 3 e + a 4 e + a 1 e + a 2 e + a 3 e + a 4 e + a

3:06
G|-----------------------------------------------------------------|
D|-----------------------------------------------------------------|
A|-5-----------5---5---------------1-----------1---1-------1---1---|
D|-----------------------------------------------------------------|
   1 e + a 2 e + a 3 e + a 4 e + a 1 e + a 2 e + a 3 e + a 4 e + a

G|-----------------------------------------------------------------|
D|-----------------------------------------------------------------|
A|---------------------------------0-----------0---0-------0---/---|
D|-2-----------2---2-----------------------------------------------|
   1 e + a 2 e + a 3 e + a 4 e + a 1 e + a 2 e + a 3 e + a 4 e + a

G|-----------------------------------------------------------------|
D|-----------------------------------------------------------------|
A|-5-----------5---5-------7---\---1-----------1---1-------1---1---|
D|-----------------------------------------------------------------|
   1 e + a 2 e + a 3 e + a 4 e + a 1 e + a 2 e + a 3 e + a 4 e + a

G|-----------------------------------------------------------------|
D|-----------------------------------------------------------------|
A|---------------------------------0-----------0---0-------0---/---|
D|-3-------3---3---3-------3---------------------------------------|
   1 e + a 2 e + a 3 e + a 4 e + a 1 e + a 2 e + a 3 e + a 4 e + a

3:21
G|-----------------------------------------------------------------|
D|-----------------------------------------------------------------|
A|-5-----------5---5-------7---\---1-----------1---1-------1---8---|
D|-----------------------------------------------------------------|
   1 e + a 2 e + a 3 e + a 4 e + a 1 e + a 2 e + a 3 e + a 4 e + a

G|-----------------------------------------------------------------|
D|-----------------------------------------------------------------|
A|-7-----------7---7-------7---\---0-----------0-------------------|
D|-------------------------------------------------5-----------5---|
   1 e + a 2 e + a 3 e + a 4 e + a 1 e + a 2 e + a 3 e + a 4 e + a

G|-----------------------------------------------------------------|
D|-----------------------------------------------------------------|
A|-5-----------5---5-------5---7---1-----------1---1-------1---1---|
D|-----------------------------------------------------------------|
   1 e + a 2 e + a 3 e + a 4 e + a 1 e + a 2 e + a 3 e + a 4 e + a

G|-----------------------------------------------------------------|
D|-----------------------------------------------------------------|
A|---------------------------------0-----------0---0-------0-------|
D|-3-----------3---3-------3---------------------------------------|
   1 e + a 2 e + a 3 e + a 4 e + a 1 e + a 2 e + a 3 e + a 4 e + a

3:36
G|-----------------------------------------------------------------|
D|-----------------------------------------------------------------|
A|---------------------------------1-----------1---1-------1---1---|
D|-0-----------0---0-----------0-----------------------------------|
   1 e + a 2 e + a 3 e + a 4 e + a 1 e + a 2 e + a 3 e + a 4 e + a

G|-----------------------------------------------------------------|
D|-----------------------------------------------------------------|
A|---------------------------------0-----------0---0-------0---0---|
D|-2-----------2---2-----------2-----------------------------------|
   1 e + a 2 e + a 3 e + a 4 e + a 1 e + a 2 e + a 3 e + a 4 e + a

G|-----------------------------------------------------------------|
D|-----------------------------------------------------------------|
A|-5-----------5---5-----------5---1-----------1---1-------1-------|
D|-----------------------------------------------------------------|
   1 e + a 2 e + a 3 e + a 4 e + a 1 e + a 2 e + a 3 e + a 4 e + a

G|-----------------------------------------------------------------|
D|-----------------------------------------------------------------|
A|---------------------------------------------------------1---1---|
D|-2-----------2---2---2---2---2---1---1---1---1---1---1-----------|
   1 e + a 2 e + a 3 e + a 4 e + a 1 e + a 2 e + a 3 e + a 4 e + a

G|-----------------------------------------------------------------|
D|-----------------------------------------------------------------|
A|-----3-/-5-------6-\-5-------6-/-8-------8---4-------------------|
D|-0-----------0-0---------0-----------0---------------------------|
   1 e + a 2 e + a 3 e + a 4 e + a 1 e + a 2 e + a 3 e + a 4 e + a
Suggest correction
Creating personal tab
Creating personal tab
You can edit any tab online and save it as your Personal.

You can edit, replace or remove any tab part or add personal notes – all changes will be seen only by you.

Personal tabs can be accessed anytime from any device, even offline.
Learn more »
Give kudos to tab author, rate the tab!
1 2 3 4 5
comments
print report bad tab
guest
You may want to rate the tab now too:
select rating
Wanna post a correction for this tab? Suggest correction