Oops, an error
Loading. Please wait.
We have an official From The Pinnacle To The Pit tab made by UG professional guitarists. Check out the tab »
×
by Ghost
37,004 views 174 this week
7 commentsread comments
1 2 3 4 5
x 25
add to favorites
×
Save as Personal and add changes to this tab that will be seen only by you. Learn more ›
×
You can save this tab as Personal to edit and correct it or add notes. All changes will be seen only by you. Learn more »
launch autoscroll
font size
0
reset
guitar tuner
backing track
0:00
0:00
edit
Autoscroll
slow
fast
+/-
esc
set tempo
stop
Intro
G|-----------------------------------------------------------------|
D|-----------------------------------------------------------------|
A|-----------------------------------------------------------------|
D|-2-r-2---5-2-5-6---6-6---5-6-0-1-2-r-2---5-2-5-6---6-6---5-6-0-1-|
   1 + 2 + 3 + 4 + 1 + 2 + 3 + 4 + 1 + 2 + 3 + 4 + 1 + 2 + 3 + 4 +

G|-----------------------------------------------------------------|
D|-----------------------------------------------------------------|
A|-----------------------------------------------------------------|
D|-2-r-2---5-2-5-6---6-6---5-6-0-1-2-r-2---5-2-5-6---6-6-----------|
   1 + 2 + 3 + 4 + 1 + 2 + 3 + 4 + 1 + 2 + 3 + 4 + 1 + 2 + 3 + 4 +

Guitars Enter 0:10
G|-------------------------------------------------------------------|
D|o-----------------------------------------------------------------o|
A|o-----------------------------------------------------------------o|
D|--2-r-2---5-2-5-6---6-6---5-6-0-1-2-r-2---5-2-5-6---6-6---5-6-0-1--|
    1 + 2 + 3 + 4 + 1 + 2 + 3 + 4 + 1 + 2 + 3 + 4 + 1 + 2 + 3 + 4 +

G|---------------------------------|
D|---------------------------------|
A|-2-2-2-2-5-4-2-1---1-1-----------|
D|-----------------------5---5-0---|
   1 + 2 + 3 + 4 + 1 + 2 + 3 + 4 + 

Verse 0:24
G|-------------------------------------------------------------------|
D|o-----------------------------------------------------------------o|
A|o-----------------------------------------------------------------o|
D|--2-r-2---5-2-5-6---6-6---5-6-0-1-2-r-2---5-2-5-6---6-6---5-6-0-1--|
    1 + 2 + 3 + 4 + 1 + 2 + 3 + 4 + 1 + 2 + 3 + 4 + 1 + 2 + 3 + 4 +

Pre Chorus 0:34
G|---------------------------------|
D|---------------------------------|
A|-2-2-2-2-5-4-2-1---1-1-----------|
D|-----------------------5---5-0---|
   1 + 2 + 3 + 4 + 1 + 2 + 3 + 4 + 

Chorus 0:37
G|-----------------------------------------------------------------|
D|-----2-----3-----2-----3-------------2-----3-----2-----3---------|
A|-----------------------------------------------------------------|
D|-0-2---0-2---0-2---0-2---0-2-6-6-0-2---0-2---0-2---0-2---0-6-----|
   1 + 2 + 3 + 4 + 1 + 2 + 3 + 4 + 1 + 2 + 3 + 4 + 1 + 2 + 3 + 4 +

G|---------------------------------|
D|---------------------------------|
A|-2-2-2-2-5-4-2-1---1-1-----------|
D|-----------------------5---5-0---|
   1 + 2 + 3 + 4 + 1 + 2 + 3 + 4 + 

Interlude 0:45
G|-----------------------------------------------------------------|
D|-----------------------------------------------------------------|
A|-----------------------------------------------------------------|
D|-2-r-2---5-2-5-6---6-6---5-6-0-1-2-r-2---5-2-5-6---6-6---5-6-0-1-|
   1 + 2 + 3 + 4 + 1 + 2 + 3 + 4 + 1 + 2 + 3 + 4 + 1 + 2 + 3 + 4 +

Verse 0:50
G|-------------------------------------------------------------------|
D|o-----------------------------------------------------------------o|
A|o-----------------------------------------------------------------o|
D|--2-r-2---5-2-5-6---6-6---5-6-0-1-2-r-2---5-2-5-6---6-6---5-6-0-1--|
    1 + 2 + 3 + 4 + 1 + 2 + 3 + 4 + 1 + 2 + 3 + 4 + 1 + 2 + 3 + 4 +

Pre Chorus
G|---------------------------------|
D|---------------------------------|
A|-2-2-2-2-5-4-2-1---1-1-----------|
D|-----------------------5---5-0---|
   1 + 2 + 3 + 4 + 1 + 2 + 3 + 4 + 

Chorus 1:04
G|-----------------------------------------------------------------|
D|-----2-----3-----2-----3-------------2-----3-----2-----3---------|
A|-----------------------------------------------------------------|
D|-0-2---0-2---0-2---0-2---0-2-6-6-0-2---0-2---0-2---0-2---0-6-----|
   1 + 2 + 3 + 4 + 1 + 2 + 3 + 4 + 1 + 2 + 3 + 4 + 1 + 2 + 3 + 4 +

G|---------------------------------|
D|---------------------------------|
A|-2-2-2-2-5-4-2-1---1-1-----------|
D|-----------------------5---5-0---|
   1 + 2 + 3 + 4 + 1 + 2 + 3 + 4 + 

Interlude 1:12
G|-----------------------------------------------------------------|
D|-----------------------------------------------------------------|
A|-----------------------------------------------------------------|
D|-2-r-2---5-2-5-6---6-6---5-6-0-1-2-r-2---5-2-5-6---6-6---5-6-0-1-|
   1 + 2 + 3 + 4 + 1 + 2 + 3 + 4 + 1 + 2 + 3 + 4 + 1 + 2 + 3 + 4 +

Verse 1:17
G|-----------------------------------------------------------------|
D|-----------------5-----------------------5---5-6---6-6---5-6-----|
A|/7-7-7-7-5-7-7-7---7-7-7---------7---7-----7-----------------5-6-|
D|-------------------------5-6-0-1---------------------------------|
   1 + 2 + 3 + 4 + 1 + 2 + 3 + 4 + 1 + 2 + 3 + 4 + 1 + 2 + 3 + 4 +

G|-----------------------------------------------------------------|
D|---------5---5-6---6-6-------------------5---5-6---6-6---5-6-----|
A|-7-r-7-----7---------------------7---7-----7-----------------5-6-|
D|-------------------------5-6-0-1---------------------------------|
   1 + 2 + 3 + 4 + 1 + 2 + 3 + 4 + 1 + 2 + 3 + 4 + 1 + 2 + 3 + 4 +

Pre Chorus 
G|---------------------------------|
D|---------------------------------|
A|-2-2-2-2-5-4-2-1---1-1-----------|
D|-----------------------5---5-0---|
   1 + 2 + 3 + 4 + 1 + 2 + 3 + 4 + 

Chorus 
G|-----------------------------------------------------------------|
D|-----2-----3-----2-----3-------------2-----3-----2-----3---------|
A|-----------------------------------------------------------------|
D|-0-2---0-2---0-2---0-2---0-2-6-6-0-2---0-2---0-2---0-2---0-6-----|
   1 + 2 + 3 + 4 + 1 + 2 + 3 + 4 + 1 + 2 + 3 + 4 + 1 + 2 + 3 + 4 +

G|---------------------------------|
D|---------------------------------|
A|-2-2-2-2-5-4-2-1---1-1-----------|
D|-----------------------5---5-0---|
   1 + 2 + 3 + 4 + 1 + 2 + 3 + 4 + 

Bridge 1:38
G|------------------------------------------------------------------|
D|o-----------------------------------------------------------------|
A|o-3-3-3-3-3-3-3-----------7-\-------------------------------------|
D|----------------2-----------------5-5-5-5-5-5-5-0---------12-\----|
    1 + 2 + 3 + 4 + 1 + 2 + 3 + 4 + 1 + 2 + 3 + 4 + 1 + 2 + 3 + 4 +

G|----------------------------------------------------------------------------------|
D|---------------------------------------------------------------------------------o|
A|---------------------------------------------------------------------------------o|
D|-7-7-7-7-7-7-7-10--------10\-----2-2-2-2-2-r-----5-5-5-5-5-r-----0-0-0-0-0-r------|
   1 + 2 + 3 + 4 + 1 + 2 + 3 + 4 + 1 + 2 + 3 + 4 + 1 + 2 + 3 + 4 + 1 + 2 + 3 + 4 +

G|-----------------------------------------------------------------|
D|-----------------------------------------------------------------|
A|-----------------------------------------------------------------|
D|-7---7---7-7-7-10--------10\-----2-2-2-2-2-r---------------------|
   1 + 2 + 3 + 4 + 1 + 2 + 3 + 4 + 1 + 2 + 3 + 4 + 1 + 2 + 3 + 4 +

G|-----------------------------------------------------------------|
D|-----------------------------------------------------------------|
A|---------------------------------------------------------7-\-----|
D|-0-0-0-0-0-r-----------------------------------------------------|
   1 + 2 + 3 + 4 + 1 + 2 + 3 + 4 + 1 + 2 + 3 + 4 + 1 + 2 + 3 + 4 +

2:13
G|---------------------------------|
D|---------------------------------|
A|---------------------------------|
D|-2-r-2---5-2-5-6---6-6--/14\-----|
   1 + 2 + 3 + 4 + 1 + 2 + 3 + 4 + 

Solo 2:16
G|-------------------------------------------------------------------|
D|o-----------------------------------------------------------------o|
A|o-----------------------------------------------------------------o|
D|--2-r-2---5-2-5-6-6-6-6---5-6-0-1-2-r-2---5-2-5-6-6-6-6---5-6-0-1--|
    1 + 2 + 3 + 4 + 1 + 2 + 3 + 4 + 1 + 2 + 3 + 4 + 1 + 2 + 3 + 4 +

G|---------------------------------|
D|---------------------------------|
A|-2-2-2-2-5-4-2-1---1-1-----------|
D|-----------------------5---5-0---|
   1 + 2 + 3 + 4 + 1 + 2 + 3 + 4 + 

G|-----------------------------------------------------------------|
D|-----2-----3-----2-----3-------------2-----3-----2-----3---------|
A|-----------------------------------------------------------------|
D|-0-2---0-2---0-2---0-2---0-2-6-6-0-2---0-2---0-2---0-2---0-6-----|
   1 + 2 + 3 + 4 + 1 + 2 + 3 + 4 + 1 + 2 + 3 + 4 + 1 + 2 + 3 + 4 +

G|---------------------------------|
D|---------------------------------|
A|-2-2-2-2-5-4-2-1---1-1-----------|
D|-----------------------5---5-0---|
   1 + 2 + 3 + 4 + 1 + 2 + 3 + 4 + 

Verse 2:37
G|-------------------------------------------------------------------|
D|o-----------------------------------------------------------------o|
A|o-----------------------------------------------------------------o|
D|--2-r-2---5-2-5-6-6-6-6---5-6-0-1-2-r-2---5-2-5-6-6-6-6---5-6-0-1--|
    1 + 2 + 3 + 4 + 1 + 2 + 3 + 4 + 1 + 2 + 3 + 4 + 1 + 2 + 3 + 4 +

2:48
G|---------------------------------------------------------------------|
D|o-----------------5-------------------------------5-----------------o|
A|o/7-7-7-7-5-7-7-7---7-7-7--------/7-7-7-7-5-7-7-7---7-7-7-7---------o|
D|--------------------------5-6-0-1---------------------------5-6-0-1--|
    1 + 2 + 3 + 4 + 1 + 2 + 3 + 4 + 1 + 2 + 3 + 4 + 1 + 2 + 3 + 4 +

G|---------------------------------|
D|---------------------------------|
A|-2-2-2-2-5-4-2-1---1-1-----------|
D|-----------------------5---5-0---|
   1 + 2 + 3 + 4 + 1 + 2 + 3 + 4 + 

Chorus 3:01
G|-----------------------------------------------------------------|
D|-----2-----3-----2-----3-------------2-----3-----2-----3---------|
A|-----------------------------------------------------------------|
D|-0-2---0-2---0-2---0-2---0-2-6-6-0-2---0-2---0-2---0-2---0-6-----|
   1 + 2 + 3 + 4 + 1 + 2 + 3 + 4 + 1 + 2 + 3 + 4 + 1 + 2 + 3 + 4 +

G|---------------------------------------------------------------------|
D|---------------------------------9---9---12-11-9-8---8-8-------------|
A|-2-2-2-2-5-4-2-1---1-1-----------------------------------10---10-5---|
D|-----------------------5---5-0---------------------------------------|
   1 + 2 + 3 + 4 + 1 + 2 + 3 + 4 + 1 + 2 + 3  +  4 + 1 + 2 +  3 +  4 +

Outro 3:12
G|-----------------------------------------------------------------|
D|-----------------------------------------------------------------|
A|-7-\---------------------7-\-------------7-\-------------5-\-----|
D|-----------------------------------------------------------------|
   1 + 2 + 3 + 4 + 1 + 2 + 3 + 4 + 1 + 2 + 3 + 4 + 1 + 2 + 3 + 4 +

G|---------------------------------------------------------------------------------|
D|---------------------------------------------------------------------------------|
A|---------7-\-------------5-\-----------------------------------------------------|
D|---------------------------------2-2-2-2-2-r-----5-5-5-5-5-r-----0-0-0-0-0-r-----|
   1 + 2 + 3 + 4 + 1 + 2 + 3 + 4 + 1 + 2 + 3 + 4 + 1 + 2 + 3 + 4 + 1 + 2 + 3 + 4 +

3:23
G|------------------------------------------------------------------|
D|o-----------------------------------------------------------------|
A|o-3-3-3-3-3-3-3-----------7-\-------------------------------------|
D|----------------2-----------------5-5-5-5-5-5-5-0---------12-\----|
    1 + 2 + 3 + 4 + 1 + 2 + 3 + 4 + 1 + 2 + 3 + 4 + 1 + 2 + 3 + 4 +

G|----------------------------------------------------------------------------------|
D|---------------------------------------------------------------------------------o|
A|---------------------------------------------------------------------------------o|
D|-7-7-7-7-7-7-7-10--------10\-----2-2-2-2-2-r-----5-5-5-5-5-r-----0-0-0-0-0-r------|
   1 + 2 + 3 + 4 + 1 + 2 + 3 + 4 + 1 + 2 + 3 + 4 + 1 + 2 + 3 + 4 + 1 + 2 + 3 + 4 +

G|-----------------------------------------------------------------|
D|-----------------------------------------------------------------|
A|-----------------------------------------------------------------|
D|-7---7---7-7-7-10--------10\-----2-2-2-2-2-r---------------------|
   1 + 2 + 3 + 4 + 1 + 2 + 3 + 4 + 1 + 2 + 3 + 4 + 1 + 2 + 3 + 4 +

G|-----------------------------------------------------------------|
D|-----------------------------------------------------------------|
A|---------------------------------------------------------7-\-----|
D|-0-0-0-0-0-r-----------------------------------------------------|
   1 + 2 + 3 + 4 + 1 + 2 + 3 + 4 + 1 + 2 + 3 + 4 + 1 + 2 + 3 + 4 +
Tabbed by Dave Vucko

            
            
Suggest correction
Creating personal tab
Creating personal tab
You can edit any tab online and save it as your Personal.

You can edit, replace or remove any tab part or add personal notes – all changes will be seen only by you.

Personal tabs can be accessed anytime from any device, even offline.
Learn more »
comments
print report bad tab
7 comments total. Showing first comments.
+1 reply
slash888 10 Jun 24, 2016 02:19 PM

are the "r"s rests?

0 reply
King_Bowser 10 Apr 11, 2017 01:40 AM

It's in D standard. Other than that it's great.

guest
You may want to rate the tab now too:
select rating
Wanna post a correction for this tab? Suggest correction