Oops, an error
Loading. Please wait.

Ghuleh Zombie Queen Acoustic tab

version 1
version 1

Whole song

Interactive

by Ghost
8,329 views 108 this week
1 commentread comment
1 2 3 4 5
x 4
add to favorites
×
Save as Personal and add changes to this tab that will be seen only by you. Learn more ›
×
You can save this tab as Personal to edit and correct it or add notes. All changes will be seen only by you. Learn more »
launch autoscroll
font size
0
reset
how to read this tab
guitar tuner
edit
Autoscroll
slow
fast
+/-
esc
set tempo
stop
VIDEO OF LIVE PERFORMANCE: https://www.youtube.com/watch?v=VgamwEi90w4

STANDARD TUNING BUT TUNED DOWN ONE WHOLE STEP.


 Ghuleh

[Intro/Verse]

 GUITAR ONE                                   1, 2, 3,         4.
D|------------------------------------------- ---------------| ---------|
A|:--7-8---8---8---7-8---8---8---7-3-5---5-1- --7---7---7---:| --7-let--|
F|---7-9-9-9-9-9-9-7-9-9-9-9-9-9-7-4-5-5-5-2- --7-7-7-7-7-7--| --7-ring-|
C|---7-9-9---9---9-7-9-9---9---9-7-4---5---2- ----7---7---7--| --7------|
G|:------------------------------------------ --------------:| ---------|
D|------------------------------------------- ---------------| ---------|
|
|
 GUITAR TWO                                   1, 2, 3         4.
D|------------------------------------------- --------------| -----------|
A|:------------------------------------------ -------------:| -----------|
F|------------------------------------------- --------------| -----------|
C|--4-5---5---5---4-5---5---5---4-0-5---5-10- -4---4---4----| --4--let---|
G|:-5-7-7-7-7-7-7-5-7-7-7-7-7-7-5-0-3-3-3-12- -5-5-5-5-5-5-:| --5--ring--|
D|--5-7-7---7---7-5-7-7---7---7-5-2---3------ ---5---5---5--| --5--------|


[Chorus] {both guitars)
D|--3---3---3---3----1---1---1---1----3---3---3---3----1---1----0^1^0---0----|
A|--0---0---0---0----3---3---3---3----0---0---0---0----3---3----------3-3-3--|
F|--0---0---0---0----2-2-2-2-2-2-2-2--0---0---0---0----2-2-2-2------------2--|
C|--0-0---0---0---0--0-0---0---0---0--0-0---0---0---0--0-0---0------------0--|
G|--2-2---2---2---2--0-0---0---0---0--2-2---2---2---2--0-0---0---------------|
D|--3-3---3---3---3-------------------3-3---3---3---3------------------------|

 {both guitars)
D|--3---3---3---3------------------------ ---------------------3----------|
A|--0---0---0---0------------1-1--------- ---------------------3----------|
F|--0---0---0---0------------0--0-----0-- --0^2-0--------------0----------|
C|--0-0---0---0---0--3---2^3-2--2-0^2-0-- --3---3-3-2--0---0^2-0----------|
G|--2-2---2---2---2--3-3-3---3----3---2-- ----------3----3-3---2----------|
D|--3-3---3---3---3-------------------3-- ---------------------3----------|


[Verse]

 GUITAR ONE                                   1,               2.
D|------------------------------------------- ---------------| ---------|
A|:--7-8---8---8---7-8---8---8---7-3-5---5-1- --7---7---7---:| --7-let--|
F|---7-9-9-9-9-9-9-7-9-9-9-9-9-9-7-4-5-5-5-2- --7-7-7-7-7-7--| --7-ring-|
C|---7-9-9---9---9-7-9-9---9---9-7-4---5---2- ----7---7---7--| --7------|
G|:------------------------------------------ --------------:| ---------|
D|------------------------------------------- ---------------| ---------|
|
|
 GUITAR TWO                                   1,              2.
D|------------------------------------------- --------------| -----------|
A|:------------------------------------------ -------------:| -----------|
F|------------------------------------------- --------------| -----------|
C|--4-5---5---5---4-5---5---5---4-0-5---5-10- -4---4---4----| --4--let---|
G|:-5-7-7-7-7-7-7-5-7-7-7-7-7-7-5-0-3-3-3-12- -5-5-5-5-5-5-:| --5--ring--|
D|--5-7-7---7---7-5-7-7---7---7-5-2---3------ ---5---5---5--| --5--------|


[Chorus]

{both guitars)
D|--3---3---3---3---1---1---1---1---3---3---3---3---1---1----0^1^0---0----|
A|--0---0---0---0---3---3---3---3---0---0---0---0---3---3----------3-3-3--|
F|--0---0---0---0---2-2-2-2-2-2-2-2-0---0---0---0---2-2-2-2------------2--|
C|--0-0---0---0---0-0-0---0---0---0-0-0---0---0---0-0-0---0------------0--|
G|--2-2---2---2---2-0-0---0---0---0-2-2---2---2---2-0-0---0---------------|
D|--3-3---3---3---3-----------------3-3---3---3---3-----------------------|

{both guitars
D|--3---3---3---3------------------------ ---------------------3----------|
A|--0---0---0---0------------1-1--------- ---------------------3----------|
F|--0---0---0---0------------0--0-----0-- --0^2-0--------------0----------|
C|--0-0---0---0---0--3---2^3-2--2-0^2-0-- --3---3-3-2--0---0^2-0----------|
G|--2-2---2---2---2--3-3-3---3----3---2-- ----------3----3-3---2----------|
D|--3-3---3---3---3-------------------3-- ---------------------3----------|


  [THE KAZOO OF DESTINY Solo]

D|---7-----------------7------------------7---------------------------|
A|-----8----6-5-6--------8---6-5------------8---6^5-6-5-----5---------|
F|-7-----7-----------7-----7-----7----5^7-----7---------7-5---7-------|
C|--------------------------------------------------------------------|
G|--------------------------------------------------------------------|
D|--------------------------------------------------------------------|

D|----------5---------------------------------------------------------|
A|--------6---8-6-5---------------------------------------------------|
F|--4-5-7-------------------------------------------------------------|
C|--------------------------------------------------------------------|
G|--------------------------------------------------------------------|
D|--------------------------------------------------------------------|



  Zombie Queen


[Intro/Verse]
]
D|------------------------------------------- |-------------------|
A|------------------------------------------- |:-----------------:|
F|------------------------------------------- |-------------------|
C|--PM--------------------------------------- |-------------------|
G|--=======================================-- |:----------7-7----:|
D|--0-0-0-0-0-0-0-0-0-0-0-0-0-0-0-0-0-0-0-0-- |---0-0-7-7----7-7--|


  HARMONICS                        The moon is full and …………
D|----------(12)------------------------------------------------------|
A|----------(12)------------------------------------------------------|
F|--------------------------------------------------------------------|
C|--------------------------------------------------------------------|
G|--------------------------------------------------------------------|
D|--------------------------------0-LET-RING--------------------------|

  shines an evil blinding light…
D|----0--0---0-0---0---0--0-0--- |-------------------|
A|----0--0-0-0-0---0---0--0-0--- |:-----------------:|
F|--X-5--5-0-0-0-x-3---2--0-0--- |-------------------|
C|--X-5--5-0-5---x-4---3--2-2--- |-------------------|
G|--X-3--3---5---x-4---3--2-2--- |:----------7-7----:|
D|-----------3-----2---1--0-0--- |---0-0-7-7----7-7--|

                                                   Under a mono--
D|--------------------------------------------------------------------|
A|--------------------------------------------------------------------|
F|--------------------------------------------------------------------|
C|--------------------------------------------------------------------|
G|--------------------------------------------------------------------|
D|------0-let-ring----------------0-LET-RING--------------------------|


  --lith, her likeness marble white
D|-----------3-3---0---0--0-0--- |--------------------|
A|----1--1-0-3-3---0---0--0-0--- |:------------------:|
F|--X-0--0-0-0-0-0-3---2--0-0--- |--------------------|
C|--X-2--2-0-0-0-0-4---3--2-2--- |--------------------|
G|--X-3--3---2-----4---3--2-2--- |:----------7-7-----:|
D|-----------3-----2---1--0-0--- |---0-0-7-7-----7-7--|


[Interlude]

 Guitar One  (three times)
D|-------------------------| -------------------------------------|
A|:-----------------------:| -------------------------------------|
F|-------------------------| --5-5-5-5--6-6-6-6--7-7-7-7--8-------|
C|---------5-5--4-4--------| --x-x-x-x--x-x-x-x--x-x-x-x--x--rest-|
G|:---3-3------------4-4--:| --3 3 3 3--4 4 4 4--5 5 5 5--6-------|
D|-------------------------| -------------------------------------|


  Guitar two
D|-------2-2--------------2-2-------------2-2----|
A|-5-5---2-2------5-5-----2-2-----5-5-----2-2----|
F|-5-5-q-3-3-q.r--5-5-q.r-3-3-q.r-5-5-q.r-3-3-qr-|
C|-5-5-r-4-4------5-5-----4-4-----5-5-----4-4----|
G|-3-3---4-4------3-3-----4-4-----3-3-----4-4----|
D|-3-3---2-2------3-3-----2-2-----3-3-----2-2----|


  Guitar two
D|---------------------------|
A|5-5----6-6----7-7-----8----|
F|5-5-qr-6-6-qr-7-7-qr--8-qr-|
C|5-5----6-6----7-7-----8----|
G|3-3----4-4----5-5-----6----|
D|3-3----4-4----5-5-----6----|


 [Chorus]

D|--------0------0---------0------0----------0-----0-----0------0---|
A|:-----0------0---------0------0----------0-----0-----0------0-----|
F|----0----------------0------0----------8-8-----8-----8------8-----|
C|--2--------2-------5-------------------9--------------------------|
G|:-2----------------5-------------------------9-----9------9-------|
D|--0----------------3----------------/7-------7-----7------7-------|


D|-------0------0---------0------0----------0-----0-----0------0--|
A|-----0------0---------0------0----------0-----0-----0------0----|
F|---0----------------0------0----------8-8-----8-----8------8----|
C|-2--------2-------5-------------------9-------------------------|
G|-2----------------5-------------------------9-----9------9------|
D|-0----------------3----------------/7-------7-----7------7------|


D|-----0--------0-0-0----------0---------------0---------------0--------|
A|---0--------0---0-0------------0---------------0---------------0-----:|
F|-8-8-----7------7-6--------------0-------0-------0-------2-------0----|
C|-9-------7------7-7------2---------2---2---2-------2---2---2-------2--|
G|-9-----5--------5-7----2---2---------3---------------3---------------:|
D|-7----------------5--0------------------------------------------------|

 Guitar one
D|---------------------|-----------------------------0-0-0--|
A|:-------------------:|--1--------------------------0-0-0--|
F|---------------------|--0---0---0------------------0-0-0--|
C|---------------------|--2-x-0---0--===============-3-2-2--|
G|:-----------7-7-----:|--3-x---2----4-4-4-4-4-4-4-4-3-2-2--|
D|--0-0--7-7------7-7--|--------3----2-2-2-2-2-2-2-2-1-0-0--|
|
|
|
 Guitar two
D|----------------------------------------------------(12)--0--------|
A|----------------------------------------------------(12)--0--------|
F|----------------------------------------------------harm.-0--------|
C|----^bend------------slide---b.---------------------------2--------|
G|----9-------7-----5-5/7------^----------------------------2--------|
D|-7-------------7-------------6----5---4----3------0-------0--------|


D|---------------|---0---0-0-0-0-0-0--|---------------|---0---0-0-|
A|:-------------:|---0---0-0-0-0-0-0--|:-------------:|---0---0-0-|
F|---------------|-x-5---0-0-3-2-0-0--|---------------|-x-5-x-0-0-|
C|---------------|-x-5-x-5-5-4-3-2-2--|---------------|-x-5-x-5-5-|
G|:-------77----:|-x-3-x-5-5-4-3-2-2--|:-------77----:|-x-3-x-5-5-|
D|--00-77----77--|-----x-3-3-2-1-0-0--|--00-77----77--|-------3-3-|


D|-0-0-0-0-0-0-0-0-0-0-0-0--0--------0-------0--0--|---------------|
A|-0-0-0-0-0-0-0-0-0-0-0-0--0--------0-------0--0--|:-------------:|
F|-3-3-3-3-3-3-3-3-3-3-3-3--3-quick--3-quick-2--0--|---------------|
C|-4-4-4-4-4-4-4-4-4-4-4-4--4-rest---4--rest-3--2--|---------------|
G|-4-4-4-4-4-4-4-4-4-4-4-4--4--------4-------3--2--|:-------77----:|
D|-2-2-2-2-2-2-2-2-2-2-2-2--2--------2-------1--0--|--00-77----77--|


[Solo]

 Guitar one
D|-----------------------------------------------------------------------------|
A|-10^12-12-12-12-12-12--------------------------------------------------------|
F|----------------------12^11-11-11-11-11-11-12^9-9-9-9-9-9-7^9-9-9-9-9-9------|
C|-----------------------------------------------------------------------------|
G|-----------------------------------------------------------------------------|
D|-----------------------------------------------------------------------------|
|
|
 Guitar two
D|---------2-2-----------2-2------------2-2--------------------------|
A|--5-5----2-2----5-5----2-2----5-5-----2-2------5-5-5/6-------------|
F|--5-5-qr-3-3-qr-5-5-qr-3-3-qr-5-5-qr--3-3--qr--5-5-5/6-quick-------|
C|--5-5----4-4----5-5----4-4----5-5-----4-4------5-5-5/6--rest-------|
G|--3-3----4-4----3-3----4-4----3-3-----4-4------3-3-3/4-------------|
D|--3-3----2-2----3-3----2-2----3-3-----2-2------3-3-3/4-------------|


 GUITAR ONE
D|-------------------------------------------------------------------|
A|---10-12-----------------------------------------------------------|
F|---------------12-11------11-12\9-9-----7^9-9-9-9------------------|
C|-------------------------------------------------------------------|
G|-------------------------------------------------------------------|
D|-------------------------------------------------------------------|
|
|
 |GUITAR TW0
D|-------0---------------------0-------------------------------------|
A|-------0----------3----------0-------------------------------------|
F|-------0----------2----------2------------2------------------------|
C|----2--2--------0-0--------2-2------------3------------------------|
G|----2--2--------0-0--------0-0----------3-3------------------------|
D|----0--0--------------------------------1-1------------------------|


 GUITAR ONE
D|-------------------------------------------------------------------|
A|-10^12-12-12-12----------------------------------------------------|
F|-------------------12-11----12-9------7-9-9-9--quick-rest----------|
C|-------------------------------------------------------------------|
G|-------------------------------------------------------------------|
D|-------------------------------------------------------------------|
|
 |GUITAR TW0
D|-------0---------------------0-------------------------------------|
A|-------0----------3----------0-------------------------------------|
F|-------0----------2----------2------------2------------------------|
C|----2--2--------0-0--------2-2------------3------------------------|
G|----2--2--------0-0--------0-0----------3-3------------------------|
D|----0--0--------------------------------1-1------------------------|


 GUITAR ONE         REPEAT ONCE
D|----*rapid-pick-------------------------------------------------|
A|:10^12***------10^12-10^12------RP-----------------RP----------:|
F|---------------------------12^11***-12^11-12^11-7^9***-7^9-7^9--|
C|----------------------------------------------------------------|
G|:--------------------------------------------------------------:|
D|----------------------------------------------------------------|
|
 |GUITAR TW0
D|0-0-0-0-0-0-0-0-----------------0-0-0-0-0-0-0-0-----------------0-0-0-0-0-0-0-0-|
A|0-0-0-0-0-0-0-0-3-3-3-3-3-3-3-3-0-0-0-0-0-0-0-0-----------------0-0-0-0-0-0-0-0-|
F|0-0-0-0-0-0-0-0-2-2-2-2-2-2-2-2-2-2-2-2-2-2-2-2-2-2-2-2-2-2-2-2-0-0-0-0-0-0-0-0-|
C|2-2-2-2-2-2-2-2-0-0-0-0-0-0-0-0-2-2-2-2-2-2-2-2-3-3-3-3-3-3-3-3-2-2-2-2-2-2-2-2-|
G|2-2-2-2-2-2-2-2-0-0-0-0-0-0-0-0-0-0-0-0-0-0-0-0-3-3-3-3-3-3-3-3-2-2-2-2-2-2-2-2-|
D|0-0-0-0-0-0-0-0---------------------------------1-1-1-1-1-1-1-1-0-0-0-0-0-0-0-0-|
|
|
 |GUITAR TW0
D|-----------------0-0-0-0-0-0-0-0-----------------|
A|-3-3-3-3-3-3-3-3-0-0-0-0-0-0-0-0-----------------|
F|-2-2-2-2-2-2-2-2-2-2-2-2-2-2-2-2-2-2-2-2-2-2-2-2-|
C|-0-0-0-0-0-0-0-0-2-2-2-2-2-2-2-2-3-3-3-3-3-3-3-3-|
G|-0-0-0-0-0-0-0-0-0-0-0-0-0-0-0-0-3-3-3-3-3-3-3-3-|
D|---------------------------------1-1-1-1-1-1-1-1-|


 GUITAR ONE
D|--------------------------------------------------------------------|
A|--------------------------------------------12-12-12-12-12-12-12-12-|
F|---7---9------7-9-10^9-7---7-9--------------------------------------|
C|--------------------------------------------------------------------|
G|--------------------------------------------------------------------|
D|--------------------------------------------------------------------|
|
|
 GUITAR TWO
D|-----0--------0--------------0---3--0-----0--0--0----0--0---0------|
A|-----0--------0--------------0---3--0-----0--0--0----0--0---0------|
F|--0--2-----0--2--------------0---4--8-----0--4--8----8--7-7-6------|
C|--3--3-----3--3--------------2---5--9-----2--5--9----9--7-7-7------|
G|--3--3-----3--3--------------2---5--9-----2--5--9----9--5---7------|
D|-----------------------------0---3--7-----0--3--7----7--5---5------|

  BOTH GUITARS
D|--------------------------------------------------------------------|
A|--------------------------------------------------------------------|
F|--PM--------------pm--------------5-5-5-5-5--QUICK-REST-------------|
C|--===============-=======-5-5-5-5-5-5-5-5-5-------------------------|
G|--2-2-2-2-2-2-2-2-3-3-3-3-3-3-3-3-3-3-3-3-3-------------------------|
D|--0-0-0-0-0-0-0-0-3-3-3-3-3-3-3-3-3-3-3-3-3-------------------------|


 [Last Chorus]

D|--0-0-0-0-0-0-0--0-0-0-0-0-0-0--0-0-0-0-0-0-0-0-0-0-0-0-0-0--|--0-0-0---------------0-0-0----|
A|:-0-0-0-0-0-0-0--0-0-0-0-0-0-0--0-0-0-0-0-0-0-0-0-0-0-0-0-0-:|--0-0-0---------------0-0-0----|
F|--0-0-0-0-0-0-0--4-4-4-4-4-4-4--8-8-8-8-8-8-8-8-8-8-8-8-8-8--|--8-8-8-X-7-7-7-7-7-X-6-6-6-X--|
C|--2-2-2-2-2-2-2--5-5-5-5-5-5-5--9-9-9-9-9-9-9-9-9-9-9-9-9-9--|--9-9-9-X-7-7-7-7-7-X-7-7-7-X--|
G|:-2-2-2-2-2-2-2--5-5-5-5-5-5-5--9-9-9-9-9-9-9-9-9-9-9-9-9-9-:|--9-9-9-X-5-5-5-5-5-X-7-7-7-X--|
D|--0-0-0-0-0-0-0--3-3-3-3-3-3-3--7-7-7-7-7-7-7-7-7-7-7-7-7-7--|--7-7-7-X-5-5-5-5-5-X-5-5-5-X--|


D|-0-0-0-0-0-0-0-------------------------------------------------------------------------|
A|-0-0-0-0-0-0-0-------------------------------------------------------------------------|
F|-0-0-0-0-0-0-0--5-5-5-5-5-5-5-5-5-5-5-5-5-5--------------------------------------------|
C|-2-2-2-2-2-2-2--5-5-5-5-5-5-5-5-5-5-5-5-5-5--------------------------------------------|
G|-2-2-2-2-2-2-2--3-3-3-3-3-3-3-3-3-3-3-3-3-3--------------------------------------------|
D|-0-0-0-0-0-0-0--3-3-3-3-3-3-3-3-3-3-3-3-3-3--------------------------------------------|


D|--0-0-0-0-0-0-0--0-0-0-0-0-0-0--0-0-0-0-0-0-0-0-0-0-0-0-0-0--|--0-0-0---------------0-0-0----|
A|:-0-0-0-0-0-0-0--0-0-0-0-0-0-0--0-0-0-0-0-0-0-0-0-0-0-0-0-0-:|--0-0-0---------------0-0-0----|
F|--0-0-0-0-0-0-0--4-4-4-4-4-4-4--8-8-8-8-8-8-8-8-8-8-8-8-8-8--|--8-8-8-X-7-7-7-7-7-X-6-6-6-X--|
C|--2-2-2-2-2-2-2--5-5-5-5-5-5-5--9-9-9-9-9-9-9-9-9-9-9-9-9-9--|--9-9-9-X-7-7-7-7-7-X-7-7-7-X--|
G|:-2-2-2-2-2-2-2--5-5-5-5-5-5-5--9-9-9-9-9-9-9-9-9-9-9-9-9-9-:|--9-9-9-X-5-5-5-5-5-X-7-7-7-X--|
D|--0-0-0-0-0-0-0--3-3-3-3-3-3-3--7-7-7-7-7-7-7-7-7-7-7-7-7-7--|--7-7-7-X-5-5-5-5-5-X-5-5-5-X--|


D|-0-0-0-0-0-0-0-------------------------------------------------------------------------|
A|-0-0-0-0-0-0-0-------------------------------------------------------------------------|
F|-0-0-0-0-0-0-0--5-5-5-5-5-5-5-5-5-5-5-5-5-5--------------------------------------------|
C|-2-2-2-2-2-2-2--5-5-5-5-5-5-5-5-5-5-5-5-5-5--------------------------------------------|
G|-2-2-2-2-2-2-2--3-3-3-3-3-3-3-3-3-3-3-3-3-3--------------------------------------------|
D|-0-0-0-0-0-0-0--3-3-3-3-3-3-3-3-3-3-3-3-3-3--------------------------------------------|


D|--0-0-0-0-0-0-0--0-0-0-0-0-0-0--0-0-0-0-0-0-0-0-0-0-0-0-0-0--|--0-0-0---------------0-0-0----|
A|:-0-0-0-0-0-0-0--0-0-0-0-0-0-0--0-0-0-0-0-0-0-0-0-0-0-0-0-0-:|--0-0-0---------------0-0-0----|
F|--0-0-0-0-0-0-0--4-4-4-4-4-4-4--8-8-8-8-8-8-8-8-8-8-8-8-8-8--|--8-8-8-X-7-7-7-7-7-X-6-6-6-X--|
C|--2-2-2-2-2-2-2--5-5-5-5-5-5-5--9-9-9-9-9-9-9-9-9-9-9-9-9-9--|--9-9-9-X-7-7-7-7-7-X-7-7-7-X--|
G|:-2-2-2-2-2-2-2--5-5-5-5-5-5-5--9-9-9-9-9-9-9-9-9-9-9-9-9-9-:|--9-9-9-X-5-5-5-5-5-X-7-7-7-X--|
D|--0-0-0-0-0-0-0--3-3-3-3-3-3-3--7-7-7-7-7-7-7-7-7-7-7-7-7-7--|--7-7-7-X-5-5-5-5-5-X-5-5-5-X--|


D|-0-0-0-0-0-0-0-------------------------------------------------------------------------|
A|-0-0-0-0-0-0-0-------------------------------------------------------------------------|
F|-0-0-0-0-0-0-0--5-5-5-5-5-5-5-5-5-5-5-5-5-5--------------------------------------------|
C|-2-2-2-2-2-2-2--5-5-5-5-5-5-5-5-5-5-5-5-5-5--------------------------------------------|
G|-2-2-2-2-2-2-2--3-3-3-3-3-3-3-3-3-3-3-3-3-3--------------------------------------------|
D|-0-0-0-0-0-0-0--3-3-3-3-3-3-3-3-3-3-3-3-3-3--------------------------------------------|


D|--0-0-0-0-0-0-0--0-0-0-0-0-0-0--0-0-0-0-0-0-0-0-0-0-0-0-0-0--|--0-0-0---------------0-0-0----|
A|:-0-0-0-0-0-0-0--0-0-0-0-0-0-0--0-0-0-0-0-0-0-0-0-0-0-0-0-0-:|--0-0-0---------------0-0-0----|
F|--0-0-0-0-0-0-0--4-4-4-4-4-4-4--8-8-8-8-8-8-8-8-8-8-8-8-8-8--|--8-8-8-X-7-7-7-7-7-X-6-6-6-X--|
C|--2-2-2-2-2-2-2--5-5-5-5-5-5-5--9-9-9-9-9-9-9-9-9-9-9-9-9-9--|--9-9-9-X-7-7-7-7-7-X-7-7-7-X--|
G|:-2-2-2-2-2-2-2--5-5-5-5-5-5-5--9-9-9-9-9-9-9-9-9-9-9-9-9-9-:|--9-9-9-X-5-5-5-5-5-X-7-7-7-X--|
D|--0-0-0-0-0-0-0--3-3-3-3-3-3-3--7-7-7-7-7-7-7-7-7-7-7-7-7-7--|--7-7-7-X-5-5-5-5-5-X-5-5-5-X--|


D|-0-0-0-0-0-0-0-------------------------------------------------------------------------|
A|-0-0-0-0-0-0-0-------------------------------------------------------------------------|
F|-0-0-0-0-0-0-0--5-5-5-5-5-5-5-5-5-5-5-5-5-5--------------------------------------------|
C|-2-2-2-2-2-2-2--5-5-5-5-5-5-5-5-5-5-5-5-5-5----7-9--END--------------------------------|
G|-2-2-2-2-2-2-2--3-3-3-3-3-3-3-3-3-3-3-3-3-3----5-7-------------------------------------|
D|-0-0-0-0-0-0-0--3-3-3-3-3-3-3-3-3-3-3-3-3-3------0-------------------------------------|


  [Outro] KAZOO OF DESTINY

D|--------------------------5----------2-3-|
A|-----5--------5-7-5^4---7---7-5--3-5-----|
F|--4----4----4----------------------------|
C|-----------------------------------------|
G|-----------------------------------------|
D|-----------------------------------------|

  
D|--------------------------5----------2-3----5-7-----|END
A|-----5--------5-7-------7---7-5--3-5----------------|
F|--4----4----4---------------------------------------|
C|----------------------------------------------------|
G|----------------------------------------------------|
D|----------------------------------------------------|

************************************

|: = repeat sign
:| = repeat sign
^ = hammer-on/pull-off
/ = slide up
\ = slide down
() = harmonics
x = string mute
^b = bend
qr = Quick Rest

pm
== = Palm Mute


************************************

Suggest correction
Creating personal tab
Creating personal tab
You can edit any tab online and save it as your Personal.

You can edit, replace or remove any tab part or add personal notes – all changes will be seen only by you.

Personal tabs can be accessed anytime from any device, even offline.
Learn more »
comments
print report bad tab
1 comment total.
+1 reply
mr.great.coffee 73 Oct 29, 2016 09:04 PM

amazing accuracy, great job, been practicing a lot <3 ty

guest
You may want to rate the tab now too:
select rating
Wanna post a correction for this tab? Suggest correction