Oops, an error
Loading. Please wait.

He Is Tab

version 1
version 1

Whole song

  • Here is the complete song with every solo played in standard tuning.

Interactive

1,159 views 132 this week
no commentswrite comment
1 2 3 4 5
x 5
add to favorites
launch autoscroll
font size
0
reset
how to read this tab
guitar tuner
Autoscroll
slow
fast
+/-
esc
set tempo
stop
Help us to improve Ultimate-Guitar.com Take our survey!
×
Difficulty
intermediate
About this tab version
Here is the complete song with every solo played in standard tuning. Was this info helpful? Yes No
Ghost B.C. - He Is Tab

Here I have a tab for the entire song in standard tuning. 
Note that the original song is two steps down, but I have converted it to standard.

Guitars: Guitar 1: Acoustic, Guitar 2: Acoustic, Guitar 3: Electric


INTRO:

Guitar 1:

e|----------------------------------------0h1----0---0---0-----0h1----0---0---0-------|
B|-1h3p1-0--1--1--1----1h3p1-0-1--1--1--------3----0---0---0-------3------------------|
G|-----------2--2--2------------0--0--0--------------------------------2---2----2-----|  X2
D|------------------------------------------------------------------------------------|
A|------------------------------------------------------------------------------------|
E|------------------------------------------------------------------------------------| 

Guitar 2 plays along with Guitar 1 the second time:

e|----------------------------------------------0h1----0-0-0-0-0-0---0h1---0-0-0-0-0-0------|
B|-1h3p1-0--1-1-1-1-1-1----1h3p1-0-1-1-1-1-1--1-----3----0---0---0-------3---1---1---1------|
G|------------2---2---2--------------0---0---0-----------0---0---0-----------2---2---2------|  
D|------------2---2---2--------------2---2---2-----------2---2---2-----------2---2---2------|
A|-----------------------------------3---3---3----------------------------------------------|
E|------------------------------------------------------------------------------------------|

(NOTE: THERE MIGHT BE MORE OR LESS OF THESE FINGERPICKING PARTS, DO SO MANY OF THEM YOU WANT AND DO
 WHAT SOUNDS RIGHT.)



Guitar 1:
  
  Am                     C
  We're standing here    by the abyss
                   

(continue directly from intro):
e|---0--0--0--0--0-----0---0----0---0---0---0---|
B|-----------------------1--------1-------1-----|
G|----2--2--2--2--2--0------- 0-------0---------|
D|----------------------------------------------|
A|----------------------------------------------|
E|----------------------------------------------|

   Em                      Am
   And the world is in     flames
e|-0---0---0---0-----0---0---0---0--------------|
B|---0---0---0---0------------------------------|
G|--------------------2---2---2---2-------------|
D|----------------------------------------------|
A|----------------------------------------------|
E|----------------------------------------------|
              
  Am                      C
  Two star crossed lovers reaching out
e|---0--0--0--0-----0---0----0---0---0---0------|
B|--------------------1--------1-------1--------|
G|----2--2--2--2--0--------0-------0------------|
D|----------------------------------------------|
A|----------------------------------------------|
E|----------------------------------------------|

Em                  Am                
To the beast with  many names

e|-0---0---0---0-----0---0---0---0--------------|
B|---0---0---0---0------------------------------|
G|--------------------2---2---2---2-------------|
D|----------------------------------------------|
A|----------------------------------------------|
E|----------------------------------------------|


Guitar 1 and 2:

       D
    He Is
e|------2-------|
B|------3-------|
G|---2--2-------|
D|--------------|
A|--------------|
E|--------------|

         Am             F            C                          Gsus4
He's the shining in the light without whom I                  cannot see

e|-------0--0---0-------1---1---1------0---0----0---0----0---0---3-------------|
B|---------------------------------------1--------1--------1-----3-------------|
G|--------2---2---2---2---2---2---2--0-------0---------0---------5-------------|
D|---------------------------------------------------------------5-------------|
A|---------------------------------------------------------------3-------------|
E|---------------------------------------------------------------3-------------|

         D
  And He Is
e|-----2--2-------|
B|--------3-------|
G|---2----2-------|
D|----------------|
A|----------------|
E|----------------|

       Am             F              C                         Gsus4
Insurrection. He is spite. He's the force that made            me be
e|-------0--0---0-------1---1---1------0---0----0---0----0---0---3-------------|
B|---------------------------------------1--------1--------1-----3-------------|
G|--------2---2---2---2---2---2---2--0-------0---------0---------5-------------|
D|---------------------------------------------------------------5-------------|
A|---------------------------------------------------------------3-------------|
E|---------------------------------------------------------------3-------------|

    Dm
   He Is
e|--1--1--------1-|
B|-----3--------3-|
G|-----2--------2-|
D|----------------|
A|----------------|
E|----------------|

       C                        G                      Dsus4
    Nostro Dispater       Nostr'Alma Mater             He Is

e|------0-----------------------3------------------------3------------|
B|------1-----------------------0------------------------3------------|
G|------0-----------------------0------------------------2------------|
D|------2-----------------------0-------------------------------------|
A|------3-----------------------2-------------------------------------|
E|------------------------------3-------------------------------------|


BREAK: 

Guitar 1:

e|----------------------------------------0h1----0---0---0-----0h1----0---0---0-------|
B|-1h3p1-0--1--1--1----1h3p1-0-1--1--1--------3----0---0---0-------3------------------|
G|-----------2--2--2------------0--0--0--------------------------------2---2----2-----|  
D|------------------------------------------------------------------------------------|
A|------------------------------------------------------------------------------------|
E|------------------------------------------------------------------------------------| 

Guitar 2 

e|-----------------------------------------------------0-0-0-0-0-0---------0-0-0-0-0-0------|
B|----------1-1-1-1-1-1--------------1-1-1-1--1----------0---0---0-----------1---1---1------|
G|------------2---2---2--------------0---0---0-----------0---0---0-----------2---2---2------|  
D|------------2---2---2--------------2---2---2-----------2---2---2-----------2---2---2------|
A|-----------------------------------3---3---3----------------------------------------------|
E|------------------------------------------------------------------------------------------|



Guitar 1:

Am                      C
Were' hiding here inside the beast

(continue directly from break):
e|---0--0--0--0--0-----0---0----0---0---0---0---|
B|-----------------------1--------1-------1-----|
G|----2--2--2--2--2--0------- 0-------0---------|
D|----------------------------------------------|
A|----------------------------------------------|
E|----------------------------------------------|

   Em                      Am
   And all our doubts are now destroyed
e|-0---0---0---0-----0---0---0---0--------------|
B|---0---0---0---0------------------------------|
G|--------------------2---2---2---2-------------|
D|----------------------------------------------|
A|----------------------------------------------|
E|----------------------------------------------|
              
  Am                      C
  The guidance of the morning stars
e|---0--0--0--0-----0---0----0---0---0---0------|
B|--------------------1--------1-------1--------|
G|----2--2--2--2--0--------0-------0------------|
D|----------------------------------------------|
A|----------------------------------------------|
E|----------------------------------------------|

Em                  Am                
Will lead the way, into the void

e|-0---0---0---0-----0---0---0---0--------------|
B|---0---0---0---0------------------------------|
G|--------------------2---2---2---2-------------|
D|----------------------------------------------|
A|----------------------------------------------|
E|----------------------------------------------|

Guitar 2:

Guitar 2 plays normal strumming, coming in togheter with the drums on Were' here inside the beast.
                   
                Start playing here
Am                    C
Were' hiding here inside the beast
Em                   Am
and all our doubts are now destroyed
Am                   C
The guidance of the morning stars
Em                   Am
Will lead the way, into the void


Guitar 1 and 2:

       D
    He Is
e|------2-------|
B|------3-------|
G|---2--2-------|
D|--------------|
A|--------------|
E|--------------|

         Am             F            C                          Gsus4
He's the shining in the light without whom I                  cannot see

e|-------0--0---0-------1---1---1------0---0----0---0----0---0---3-------------|
B|---------------------------------------1--------1--------1-----3-------------|
G|--------2---2---2---2---2---2---2--0-------0---------0---------5-------------|
D|---------------------------------------------------------------5-------------|
A|---------------------------------------------------------------3-------------|
E|---------------------------------------------------------------3-------------|

         D
  And He Is
e|-----2--2-------|
B|--------3-------|
G|---2----2-------|
D|----------------|
A|----------------|
E|----------------|

       Am             F              C                         Gsus4
Insurrection. He is spite. He's the force that made            me be
e|-------0--0---0-------1---1---1------0---0----0---0----0---0---3-------------|
B|---------------------------------------1--------1--------1-----3-------------|
G|--------2---2---2---2---2---2---2--0-------0---------0---------5-------------|
D|---------------------------------------------------------------5-------------|
A|---------------------------------------------------------------3-------------|
E|---------------------------------------------------------------3-------------|

    Dm
   He Is
e|--1--1--------1-|
B|-----3--------3-|
G|-----2--------2-|
D|----------------|
A|----------------|
E|----------------|

       C                        G                      Dsus4
    Nostro Dispater       Nostr'Alma Mater             He Is

e|------0-----------------------3------------------------3------------|
B|------1-----------------------0------------------------3------------|
G|------0-----------------------0------------------------2------------|
D|------2-----------------------0-------------------------------------|
A|------3-----------------------2-------------------------------------|
E|------------------------------3-------------------------------------|

SOLO: 

Guitar 3, Electric with overdrive:

e|--------------------------------------5/7---------8----------------------------------|
B|----------------------/8--5~--5h6--3------8--5~-----12-10-12-10~---------------------|
G|---5h7p5-4-5--5h7p5-4----------------------------------------------------------------|
D|-------------------------------------------------------------------------------------|
A|-------------------------------------------------------------------------------------|
E|-------------------------------------------------------------------------------------|

e|-----12p8-----10p8----12p8-----13--8-----12------------15p12-----13p12----15p12-----17--12-----15-13-12-10-|
B|----------10-------10------10--------10------10-8-10---------13--------13-------13---------13--------------|
G|-----------------------------------------------------------------------------------------------------------|
D|-----------------------------------------------------------------------------------------------------------|
A|-----------------------------------------------------------------------------------------------------------|
E|-----------------------------------------------------------------------------------------------------------|

e|--12p10-----15p10-----12p10------15p10-----12p10----12p10------------10-12-15--------------------|
B|--------12--------12--------12---------12--------12-------13-12-13-------------------------------|
G|-------------------------------------------------------------------------------------------------|
D|--------------------------------------------------------------------------------9-11-12~---------|
A|-------------------------------------------------------------------------------------------------|
E|-------------------------------------------------------------------------------------------------|


Guitar 1 and 2:

       D
    He Is
e|------2-------|
B|------3-------|
G|---2--2-------|
D|--------------|
A|--------------|
E|--------------|

         Am             F            C                          Gsus4
He's the shining in the light without whom I                  cannot see

e|-------0--0---0-------1---1---1------0---0----0---0----0---0---3-------------|
B|---------------------------------------1--------1--------1-----3-------------|
G|--------2---2---2---2---2---2---2--0-------0---------0---------5-------------|
D|---------------------------------------------------------------5-------------|
A|---------------------------------------------------------------3-------------|
E|---------------------------------------------------------------3-------------|

         D
  And He Is
e|-----2--2-------|
B|--------3-------|
G|---2----2-------|
D|----------------|
A|----------------|
E|----------------|

       Am             F              C                         Gsus4
Insurrection. He is spite. He's the force that made            me be
e|-------0--0---0-------1---1---1------0---0----0---0----0---0---3-------------|
B|---------------------------------------1--------1--------1-----3-------------|
G|--------2---2---2---2---2---2---2--0-------0---------0---------5-------------|
D|---------------------------------------------------------------5-------------|
A|---------------------------------------------------------------3-------------|
E|---------------------------------------------------------------3-------------|

       D
      He Is
e|--------2-------|
B|--------3-------|
G|---2----2-------|
D|----------------|
A|----------------|
E|----------------|

         Am             F            C                          Gsus4
He's the shining in the light without whom I                  cannot see

e|-------0--0---0-------1---1---1------0---0----0---0----0---0---3-------------|
B|---------------------------------------1--------1--------1-----3-------------|
G|--------2---2---2---2---2---2---2--0-------0---------0---------5-------------|
D|---------------------------------------------------------------5-------------|
A|---------------------------------------------------------------3-------------|
E|---------------------------------------------------------------3-------------|

         D
  And He Is
e|-----2--2-------|
B|--------3-------|
G|---2----2-------|
D|----------------|
A|----------------|
E|----------------|

       Am             F              C                         Gsus4
Insurrection. He is spite. He's the force that made            me be
e|-------0--0---0-------1---1---1------0---0----0---0----0---0---3-------------|
B|---------------------------------------1--------1--------1-----3-------------|
G|--------2---2---2---2---2---2---2--0-------0---------0---------5-------------|
D|---------------------------------------------------------------5-------------|
A|---------------------------------------------------------------3-------------|
E|---------------------------------------------------------------3-------------|
 
        D
  And He Is
e|-----2--2-------|
B|--------3-------|
G|---2----2-------|
D|----------------|
A|----------------|
E|----------------|
  
    The disobedience  that holds       us together
e|-------0--0---0-------1---1---1------0---0----0---0----0---0----------------|
B|---------------------------------------1--------1--------1------------------|
G|--------2---2---2---2---2---2---2--0-------0---------0----------------------|
D|----------------------------------------------------------------------------|
A|----------------------------------------------------------------------------|
E|----------------------------------------------------------------------------|

    Dm
   He Is
e|--1--1--------1-|
B|-----3--------3-|
G|-----2--------2-|
D|----------------|
A|----------------|
E|----------------|

       C                        G                    
    Nostro Dispater       Nostr'Alma Mater             

e|------0-----------------------3------------------------------------|
B|------1-----------------------0------------------------------------|
G|------0-----------------------0------------------------------------|
D|------2-----------------------0------------------------------------|
A|------3-----------------------2------------------------------------|
E|------------------------------3------------------------------------|

     D
   He Is
e|--2--2----------|
B|-----3----------|
G|-----2----------|
D|----------------|
A|----------------|
E|----------------|

       C                        G                     
   And we are falling       over the precipice

e|------0-----------------------3-----------------------------------|
B|------1-----------------------0-----------------------------------|
G|------0-----------------------0-----------------------------------|
D|------2-----------------------0-----------------------------------|
A|------3-----------------------2-----------------------------------|
E|------------------------------3-----------------------------------|

OUTRO SOLO:

Guitar 3, electric with overdrive:

e|-----------------------------------------------------------------------------------------------------------|
B|-----12/15---------------------------------------------------12/15-----------------------------------------|
G|------------12-11-11-9-9-7-7-9-9-6-6-4-4-2-2-4/6-4-2-0--------------12-11-11-9-9-7-7-9-9-6-6-4-4-2-2-4-4/6-|
D|--12------------------------------------------------------12-----------------------------------------------|
A|-----------------------------------------------------------------------------------------------------------|
E|-----------------------------------------------------------------------------------------------------------|

e|------------------|
B|----------1-------|
G|--4-2-0-0-2-------|
D|----------2-------|
A|------------------|
E|------------------|


Feel free to post corrections and comments, the timing of certain things and various repeditions might be
wrong because I ain't used to tabbing. I believe this song to be pretty correct thou.

L - tied note
x - dead note
g - grace note
(n) - ghost note
> - accentuded note
NH - natural harmonic
AH - artificial harmonic
TH - tapped harmonic
SH - semi harmonic
PH - pitch harmonic
h - hammer on
p - pull off
b - bend
br - bendRelease
pb - preBend
pbr - preBendRelease
brb - bendReleaseBend
\n/ - tremolo bar dip
\n - tremolo bar dive
-/n - tremolo bar Release up
/n\ - tremolo bar inverted dip
/n - tremolo bar return
-\n - tremolo bar Release down
S - shift slide
s - legato slide
/ - slide into from below or out of upwards
\ - slide into from above or out of downwards
~ - vibrato
W - wide vibrato
tr - trill
TP - tremolo picking
T - tapping
S - slap
P - pop
< - fade in
^ - brush up
v - brush down
Suggest correction
comments
print report bad tab
guest
You may want to rate the tab now too:
select rating
Wanna post a correction for this tab? Suggest correction