Oops, an error
Loading. Please wait.

Idolatrine bass

by Ghost
2,306 views 3 this week
no commentswrite comment
1 2 3 4 5
x 3
add to favorites
×
Save as Personal and add changes to this tab that will be seen only by you. Learn more ›
×
You can save this tab as Personal to edit and correct it or add notes. All changes will be seen only by you. Learn more »
launch autoscroll
font size
0
reset
guitar tuner
edit
Autoscroll
slow
fast
+/-
esc
set tempo
stop
Author
Eighth notes are played
D|-3--3-3--3-3--3-3--3-
Instead of 
D|-3-3-3-3-3-3-3-3-


G|-------------------------------------------------------------------|
D|-3h5-------5-----3h5-------5-----3h5-------5-----3h5-------5-----3h|
A|-------------------------------------------------------------------|
D|-------------------------------------------------------------------|
   + 1 + 2 + 3 + 4 + 1 + 2 + 3 + 4 + 1 + 2 + 3 + 4 + 1 + 2 + 3 + 4 +

G|-----------------------------------------------------------------|
D|-5-------5-----3h5-------5-----3h5-------5-----3h5-------5-------|
A|-----------------------------------------------------------------|
D|---------------------------------------------------------------3h|
   1 + 2 + 3 + 4 + 1 + 2 + 3 + 4 + 1 + 2 + 3 + 4 + 1 + 2 + 3 + 4 +

0:16
G|-----------------------------------------------------------------|
D|-----------------------------------------------------------------|
A|---------------------------------------------------------------1h|
D|-5---5---5-5-5-3h5---5---5-5-5-3h5---5---5-5-5-3h5---5---5-5-5---|
   1 + 2 + 3 + 4 + 1 + 2 + 3 + 4 + 1 + 2 + 3 + 4 + 1 + 2 + 3 + 4 +

G|-----------------------------------------------------------------|
D|-----------------------------------------------------------------|
A|-3---3---3-3-3-1h3---3---3-3-3-----------------------------------|
D|-------------------------------3h5---5---5-5-5-3h5---5---5-5-5-3h|
   1 + 2 + 3 + 4 + 1 + 2 + 3 + 4 + 1 + 2 + 3 + 4 + 1 + 2 + 3 + 4 +

G|-----------------------------------------------------------------|
D|-----------------------------------------------------------------|
A|---------------------------------------------------------------1h|
D|-5---5---5-5-5-3h5---5---5-5-5-3h5---5---5-5-5-3h5---5---5-5-5---|
   1 + 2 + 3 + 4 + 1 + 2 + 3 + 4 + 1 + 2 + 3 + 4 + 1 + 2 + 3 + 4 +

G|-----------------------------------------------------------------|
D|-----------------------------------------------------------------|
A|-3---3---3-3-3-5h6---6---6-6-6-------------------------------1---|
D|-------------------------------3h5---5---5-5-5-3h5---5---5-------|
   1 + 2 + 3 + 4 + 1 + 2 + 3 + 4 + 1 + 2 + 3 + 4 + 1 + 2 + 3 + 4 +

0:43
G|-----------------------------------------------------------------|
D|---------5---------------3-------------------1-------2-------1---|
A|-3---6-------6-------3-------3-----------------------------------|
D|-----------------3---------------5---5---1-------2-------1-------|
   1 + 2 + 3 + 4 + 1 + 2 + 3 + 4 + 1 + 2 + 3 + 4 + 1 + 2 + 3 + 4 +

G|-----------------------------------------------------------------|
D|---------5---------------3---------------------------------------|
A|-3---6-------6-------3-------3---------------------------------1h|
D|-----------------3---------------5---5---5-5-5-3h5---5---5-5-5---|
   1 + 2 + 3 + 4 + 1 + 2 + 3 + 4 + 1 + 2 + 3 + 4 + 1 + 2 + 3 + 4 +

G|-----------------------------------------------------------------|
D|---------5---------------3-----------5-------1-------2-------1---|
A|-3---6-------6-------3-------3-----------------------------------|
D|-----------------3---------------5-------1-------2-------1-------|
   1 + 2 + 3 + 4 + 1 + 2 + 3 + 4 + 1 + 2 + 3 + 4 + 1 + 2 + 3 + 4 +

G|-------------------------------------------------------------------------7---|
D|---------5-----------3-------1-------2-------3----------------------5--7-----|
A|-3---6-------6--------------------------------------3--5----3--5-5-----------|
D|-----------------3-------1-------2-------3-------5-------5-------------------|
   1 + 2 + 3 + 4 + 1 + 2 + 3 + 4 + 1 + 2 + 3 + 4 + Triplet Triplet Triplet 4 +

G|-----------------------------------------------------------------|
D|-5---5---5-----3h5---5---5-----3h5---5---5-----3h5---5---5---\---|
A|-----------------------------------------------------------------|
D|-----------------------------------------------------------------|
   1 + 2 + 3 + 4 + 1 + 2 + 3 + 4 + 1 + 2 + 3 + 4 + 1 + 2 + 3 + 4 +

1:16
G|-----------------------------------------------------------------|
D|-----------------------------------------------------------------|
A|---------------------------------------------------------------1h|
D|-5---5---5-5-5-3h5---5---5-5-5-3h5---5---5-5-5-3h5---5---5-5-5---|
   1 + 2 + 3 + 4 + 1 + 2 + 3 + 4 + 1 + 2 + 3 + 4 + 1 + 2 + 3 + 4 +

G|-----------------------------------------------------------------|
D|-----------------------------------------------------------------|
A|-3---3---3-3-3-1h3---3---3-3-3-----------------------------------|
D|-------------------------------3h5---5---5-5-5-3h5---5---5-5-5-3h|
   1 + 2 + 3 + 4 + 1 + 2 + 3 + 4 + 1 + 2 + 3 + 4 + 1 + 2 + 3 + 4 +

G|-----------------------------------------------------------------|
D|-----------------------------------------------------------------|
A|---------------------------------------------------------------1h|
D|-5---5---5-5-5-3h5---5---5-5-5-3h5---5---5-5-5-3h5---5---5-5-5---|
   1 + 2 + 3 + 4 + 1 + 2 + 3 + 4 + 1 + 2 + 3 + 4 + 1 + 2 + 3 + 4 +

G|-----------------------------------------------------------------|
D|-----------------------------------------------------------------|
A|-3---3---3-3-3-5h6---6---6-6-6---------------------------1---2---|
D|-------------------------------3h5---5---5-5-5-3h5---5-----------|
   1 + 2 + 3 + 4 + 1 + 2 + 3 + 4 + 1 + 2 + 3 + 4 + 1 + 2 + 3 + 4 +

1:42
G|-----------------------------------------------------------------|
D|---------5---------------3-------------------1-------2-------1---|
A|-3---6-------6-------3-------3-----------------------------------|
D|-----------------3---------------5---5---1-------2-------1-------|
   1 + 2 + 3 + 4 + 1 + 2 + 3 + 4 + 1 + 2 + 3 + 4 + 1 + 2 + 3 + 4 +

G|-----------------------------------------------------------------|
D|---------5---------------3---------------------------------------|
A|-3---6-------6-------3-------3---------------------------------1h|
D|-----------------3---------------5---5---5-5-5-3h5---5---5-5-5---|
   1 + 2 + 3 + 4 + 1 + 2 + 3 + 4 + 1 + 2 + 3 + 4 + 1 + 2 + 3 + 4 +

G|-----------------------------------------------------------------|
D|---------5---------------3-----------5-------1-------2-------1---|
A|-3---6-------6-------3-------3-----------------------------------|
D|-----------------3---------------5-------1-------2-------1-------|
   1 + 2 + 3 + 4 + 1 + 2 + 3 + 4 + 1 + 2 + 3 + 4 + 1 + 2 + 3 + 4 +

G|-------------------------------------------------------------------|
D|---------5-----------3-------1-------2-------3---------------------|
A|-3---6-------6--------------------------------------------5--5--5--|
D|-----------------3-------1-------2-------3-------0--0--0-----------|
   1 + 2 + 3 + 4 + 1 + 2 + 3 + 4 + 1 + 2 + 3 + 4 + Triplet  Triplet 

G|---------------------------------|
D|---------------------------------|
A|---------------------------------|
D|-5---5---5-5-5-3h5---5---5---/\--|
   1 + 2 + 3 + 4 + 1 + 2 + 3 + 4 +

2:13
G|-------------------------------------------------------------------|
D|o---------------------3-4---4-4-----------------------------------o|
A|o-----------------1-4-------------6-6-6-6-6-6-6-6-----------------o|x3
D|--4---4---4---4-----------------------------------6-6-6-6-6-6-6-6--|
    1 + 2 + 3 + 4 + 1 + 2 + 3 + 4 + 1 + 2 + 3 + 4 + 1 + 2 + 3 + 4 +

G|-----------------------------------------------------------------|
D|-----------------------------------------------------------------|
A|---------------------------------1-------------------------------|
D|-4---4---4---4---3---3---3---3-----------------------------------|
   1 + 2 + 3 + 4 + 1 + 2 + 3 + 4 + 1 + 2 + 3 + 4 + 1 + 2 + 3 + 4 +

2:39
G|-----------------------------------------------------------------|
D|-----------------------------------------------------------------|
A|-----------------------------------------------------------------|
D|-1---1---1-0-1-3-5---5---5-4-5-3-1---1---1-0-1-3-5---5---5-4-5-3-|
   1 + 2 + 3 + 4 + 1 + 2 + 3 + 4 + 1 + 2 + 3 + 4 + 1 + 2 + 3 + 4 +

G|-----------------------------------------------------------------|
D|-----------------------------------------------------------------|
A|-----------------------------------------------------------------|
D|-1---1---1-0-1-3-5---5---5-4-5-3-0---0---0-0-0-0-0---0---0-0-0-0-|
   1 + 2 + 3 + 4 + 1 + 2 + 3 + 4 + 1 + 2 + 3 + 4 + 1 + 2 + 3 + 4 +

2:52
G|-----------------------------------------------------------------|
D|-----------------------------------------------------------------|
A|-----------------------------5---------------------------5-------|
D|-1---3---5---8---5---7---8-------1---3---5---8---5---8-------8---|
   1 + 2 + 3 + 4 + 1 + 2 + 3 + 4 + 1 + 2 + 3 + 4 + 1 + 2 + 3 + 4 +

G|-----------------------------------------------------------------|
D|-------------------------------------3-----------3---------------|
A|-----------------------------5-----------1---3-----------1---2---|
D|-1---3---5---8---5---7---8-------3-------------------3-----------|
   1 + 2 + 3 + 4 + 1 + 2 + 3 + 4 + 1 + 2 + 3 + 4 + 1 + 2 + 3 + 4 +

3:06
G|-----------------------------------------------------------------|
D|---------5---------------3-----------5-------1-------2-------1---|
A|-3---6-------6-------3-------3-----------------------------------|
D|-----------------3---------------5-------1-------2-------1-------|
   1 + 2 + 3 + 4 + 1 + 2 + 3 + 4 + 1 + 2 + 3 + 4 + 1 + 2 + 3 + 4 +

G|-----------------------------------------------------------------------------------|
D|---------5---------------3---------------------------------------------------------|
A|-3---6-------6-------3-------3-----------------------------------------------------|
D|-----------------3-------------3h5---5---5-5-5-3/17-17-17--17-17-17--17-17-17--17\-|
   1 + 2 + 3 + 4 + 1 + 2 + 3 + 4 + 1 + 2 + 3 + 4 + Triplet   Triplet   Triplet   4 +

3:19
G|-------------------------------------------------------------8---|
D|---------5-------------------------------------------5---8-------|
A|-3---6-------6-------1---3---5---------------5---7---------------|
D|-----------------3---------------5---7---8-----------------------|
   1 + 2 + 3 + 4 + 1 + 2 + 3 + 4 + 1 + 2 + 3 + 4 + 1 + 2 + 3 + 4 +

G|-----------------------------------------------------------------|
D|---------5---------------3---------------5-----------------------|
A|-3---6-------6-------3-------3-------5-------5-----6-6-6-6-6-6-6-|
D|-----------------3---------------5-------------------------------|
   1 + 2 + 3 + 4 + 1 + 2 + 3 + 4 + 1 + 2 + 3 + 4 + 1 + 2 + 3 + 4 +

3:32
G|-------------------------------------------------------------------|
D|o-----------------------------------------------------------------o|
A|o---------------------5-6---6-6---3-3-3-3-3-3-3-3-----------------o|x3
D|--1---1---1---1---5-8-----------------------------3-3-3-3-3-3-3-3--|
    1 + 2 + 3 + 4 + 1 + 2 + 3 + 4 + 1 + 2 + 3 + 4 + 1 + 2 + 3 + 4 +

3:53
G|-----------------------------------------------------------------|
D|-----------------------------------------------------------------|
A|---------------------------------3-3-3-3-3-3-3-3-----------------|
D|-1---1---1---1---5---5---1-1-1-------------------3-3-3-3-3-3-3-3-|
   1 + 2 + 3 + 4 + 1 + 2 + 3 + 4 + 1 + 2 + 3 + 4 + 1 + 2 + 3 + 4 +

G|-----------------------------------------------------------------|
D|-----------------------------------------------------------------|
A|---------------------5-6---6-6---3-3-3-3-3-3-3-3-----------------|
D|-1---1---1---1---5-8-----------------------------3-3-3-3-3-3-3-3-|
   1 + 2 + 3 + 4 + 1 + 2 + 3 + 4 + 1 + 2 + 3 + 4 + 1 + 2 + 3 + 4 +

G|-----------------------------------------------------------------|
D|-------------------------------------------------7-------5-------|
A|-----------------------------------------5-----------------------|
D|-1---1---1---1---0---0---0---0---5-------------------------------|
   1 + 2 + 3 + 4 + 1 + 2 + 3 + 4 + 1 + 2 + 3 + 4 + 1 + 2 + 3 + 4 +
Tabbed by Dave Vucko

            
            
Suggest correction
Creating personal tab
Creating personal tab
You can edit any tab online and save it as your Personal.

You can edit, replace or remove any tab part or add personal notes – all changes will be seen only by you.

Personal tabs can be accessed anytime from any device, even offline.
Learn more »
Give kudos to tab author, rate the tab!
1 2 3 4 5
comments
print report bad tab
guest
You may want to rate the tab now too:
select rating
Wanna post a correction for this tab? Suggest correction