Oops, an error
Loading. Please wait.

If You Have Ghosts Bass Tab

version 1
version 1

Whole song

Interactive

3,429 views 24 this week
no commentswrite comment
1 2 3 4 5
excellent!
x 3
add to favorites
launch autoscroll
font size
0
reset
guitar tuner
Autoscroll
slow
fast
+/-
esc
set tempo
stop
Help us to improve Ultimate-Guitar.com Take our survey!
×
Author
Difficulty
Tuning
novice
D A D G B E
Intro 0:21
G|---------------------------------------------------------------------|
D|-----------------2---------------2---------------0-------------------|
A|---------------------------------------------------------------------|
D|-14\-2-----2-2-------2-----2-2-------0-----0-0-------0-----0-0-------|
   4 + 1 + 2 + 3 + 4 + 1 + 2 + 3 + 4 + 1 + 2 + 3 + 4 + 1 + 2 + 3 + 4 +

G|-----------------------------------------------------------------|
D|-----------------------------------------------------------------|
A|-----------------0-0-0-0-0-0-2-2---------------------------------|
D|-4-4-4-4-4-4-4-4-----------------4-4-4-4-4-4-4-4-4-4-4-4-4-4-4-4-|
   1 + 2 + 3 + 4 + 1 + 2 + 3 + 4 + 1 + 2 + 3 + 4 + 1 + 2 + 3 + 4 +

Verse 0:35
G|-------------7-\-------------------------------------------------|
D|-----------7-----------------7-\-------------4---------------4-/-|
A|-5-----5-------------------7---------------4---------------4-----|
D|-----------------7-----7---------4-----4---------4-----4---------|
   1 + 2 + 3 + 4 + 1 + 2 + 3 + 4 + 1 + 2 + 3 + 4 + 1 + 2 + 3 + 4 +

G|-------------7-\-------------------------------------------------|
D|-----------7-----------------7-\-------------4---------------4---|
A|-5-----5-------------------7---------------4---------------4-----|
D|-----------------7-----7---------4-----4---------4-----4---------|
   1 + 2 + 3 + 4 + 1 + 2 + 3 + 4 + 1 + 2 + 3 + 4 + 1 + 2 + 3 + 4 +

Chorus 0:50
G|-----------------------------------------------------------------|
D|-------2---------------2---------------0-------------------------|
A|-----------------------------------------------------------------|
D|-2-----------2---2-----------2-2-0-----------0---0-----------0---|
   1 + 2 + 3 + 4 + 1 + 2 + 3 + 4 + 1 + 2 + 3 + 4 + 1 + 2 + 3 + 4 +

G|-----------------------------------------------------------------|
D|-----------------------------------------------------------------|
A|-----------------0-----------2-2---------------------------------|
D|-4-----------4-------------------4-----4-4---4---4-4-4-4-4-4-4-4-|
   1 + 2 + 3 + 4 + 1 + 2 + 3 + 4 + 1 + 2 + 3 + 4 + 1 + 2 + 3 + 4 +

Verse 1:04
G|-------------7-\-------------------------------------------------|
D|-----------7-----------------7-\-------------4---------------4-/-|
A|-5-----5-------------------7---------------4---------------4-----|
D|-----------------7-----7---------4-----4---------4-----4---------|
   1 + 2 + 3 + 4 + 1 + 2 + 3 + 4 + 1 + 2 + 3 + 4 + 1 + 2 + 3 + 4 +

G|-------------7-\-------------------------------------------------|
D|-----------7-----------------7-\-------------4---------------4---|
A|-5-----5-------------------7---------------4---------------4-----|
D|-----------------7-----7---------4-----4---------4-----4---------|
   1 + 2 + 3 + 4 + 1 + 2 + 3 + 4 + 1 + 2 + 3 + 4 + 1 + 2 + 3 + 4 +

Chorus 1:18
G|-----------------------------------------------------------------|
D|-------2---------------2---------------0-------------------------|
A|-----------------------------------------------------------------|
D|-2-----------2---2-----------2---0-----------0---0-----------0---|
   1 + 2 + 3 + 4 + 1 + 2 + 3 + 4 + 1 + 2 + 3 + 4 + 1 + 2 + 3 + 4 +

G|-----------------------------------------------------------------|
D|-----------------------------------------------------------------|
A|-----------------0-----0-0---2-2---------------------------------|
D|-4-----------4-4-----------------4-4-4-4-4-4-4-4-4-4-4-4-4-4-4-4-|
   1 + 2 + 3 + 4 + 1 + 2 + 3 + 4 + 1 + 2 + 3 + 4 + 1 + 2 + 3 + 4 +

Solo 1:32
G|-------------7-\-------------------------------------------------|
D|-----------7-----------------7-\-------------4---------------4-/-|
A|-5-----5-------------------7---------------4---------------4-----|
D|-----------------7-----7---------4-----4---------4-----4---------|
   1 + 2 + 3 + 4 + 1 + 2 + 3 + 4 + 1 + 2 + 3 + 4 + 1 + 2 + 3 + 4 +

G|-------------7-\-------------------------------------------------|
D|-----------7-----------------7-\-------------4---------------4-4-|
A|-5-----5-------------------7---------------4---------------4-----|
D|-----------------7-----7---------4-----4---------4-----4-4-------|
   1 + 2 + 3 + 4 + 1 + 2 + 3 + 4 + 1 + 2 + 3 + 4 + 1 + 2 + 3 + 4 +

G|-----------------------------------------------------------------|
D|-------------2---------------2-------------0---------------0-----|
A|-----------2---------------2-------------------------------------|
D|-2-----2---------2-----2---------0-----0-----0---0-----0-----0-0-|
   1 + 2 + 3 + 4 + 1 + 2 + 3 + 4 + 1 + 2 + 3 + 4 + 1 + 2 + 3 + 4 +

G|-----------------------------------------------------------------|
D|-----------------------------------------------------------------|
A|-----------------0-----------2-2---------------------------------|
D|-4-----------4-4-----------------4-4-4-4-4-4-4-4-4-4-4-4-4-4-4-4-|
   1 + 2 + 3 + 4 + 1 + 2 + 3 + 4 + 1 + 2 + 3 + 4 + 1 + 2 + 3 + 4 +

Verse 2:01
G|-------------7-\-------------------------------------------------|
D|-----------7-----------------7-\-------------4---------------4-/-|
A|-5-----5-------------------7---------------4---------------4-----|
D|-----------------7-----7---------4-----4---------4-----4---------|
   1 + 2 + 3 + 4 + 1 + 2 + 3 + 4 + 1 + 2 + 3 + 4 + 1 + 2 + 3 + 4 +

G|-------------7-\-------------------------------------------------|
D|-----------7-----------------7-\-------------4---------------4---|
A|-5-----5-------------------7---------------4---------------4-----|
D|-----------------7-----7---------4-----4---------4-----4---------|
   1 + 2 + 3 + 4 + 1 + 2 + 3 + 4 + 1 + 2 + 3 + 4 + 1 + 2 + 3 + 4 +

Chorus 2:15
G|-----------------------------------------------------------------|
D|-------2---------------2---------------0-------------------------|
A|-----------------------------------------------------------------|
D|-2-----------2---2-----------2-2-0-----------0---0-----------0---|
   1 + 2 + 3 + 4 + 1 + 2 + 3 + 4 + 1 + 2 + 3 + 4 + 1 + 2 + 3 + 4 +

G|-----------------------------------------------------------------|
D|---------------------------------------------------4-4-4-4-4-4-4-|
A|-----------------0-----------2-2-----------------4---------------|
D|-4-----------4-4-----------------4---4-4-4-4-4-4-----------------|
   1 + 2 + 3 + 4 + 1 + 2 + 3 + 4 + 1 + 2 + 3 + 4 + 1 + 2 + 3 + 4 +

Outro Chorus 2:29
G|-----------------------------------------------------------------|
D|-------0---0-----------4-----4---------7-----7---------------2---|
A|-------------0-------------4---------------7---------------2-----|
D|-0---------------4---------------7---------------2-----2---------|
   1 + 2 + 3 + 4 + 1 + 2 + 3 + 4 + 1 + 2 + 3 + 4 + 1 + 2 + 3 + 4 +

G|-----------------------------------------------------------------|
D|-----------0-----------------4---------------7---------------2---|
A|-------------0-------------4---------------7---------------2-----|
D|-0-----0---------4-----4---------7-----7---------2-----2---------|
   1 + 2 + 3 + 4 + 1 + 2 + 3 + 4 + 1 + 2 + 3 + 4 + 1 + 2 + 3 + 4 +

2:43
G|-----------------------------------------------------------------|
D|-----------0-----------------4-4-------------7---------------2-2-|
A|-------------0-------------4---------------7---------------2-----|
D|-0-----0---------4-----4---------7-----7---------2-----2---------|
   1 + 2 + 3 + 4 + 1 + 2 + 3 + 4 + 1 + 2 + 3 + 4 + 1 + 2 + 3 + 4 +

G|-----------------------------------------------------------------|
D|-------------0---------------4-4-------------7-\-----------------|
A|-----------0---------------4---------------7---------------------|
D|-0-----0---------4-----4---------7-----7---------2---------------|
   1 + 2 + 3 + 4 + 1 + 2 + 3 + 4 + 1 + 2 + 3 + 4 + 1 + 2 + 3 + 4 +

Outro 2:57
G|-------------------------------------------------------------------|
D|o-------------0---------------4---------------7---------------2---o|
A|o-----------0---------------4---------------7---------------2-----o|
D|--0-----0---------4-----4---------7-----7---------2-----2----------|
    1 + 2 + 3 + 4 + 1 + 2 + 3 + 4 + 1 + 2 + 3 + 4 + 1 + 2 + 3 + 4 +

3:11
G|-----------------------------------------------------------------|
D|-----------------------------------------------------------------|
A|---------------------------------0---0-0-0-0-0-------------------|
D|-0---0-0-0-0-0-0-4---4-4-4-4-4-------------------2---2-2-2-2-2---|
   1 + 2 + 3 + 4 + 1 + 2 + 3 + 4 + 1 + 2 + 3 + 4 + 1 + 2 + 3 + 4 +

G|-----------------------------------------------------------------|
D|-----------------------------------------------------------------|
A|---------------------------------0-----0-------------------------|
D|-0---0-0-0-0-0-0-4---4-4-4-4-4---------------2-------------------|
   1 + 2 + 3 + 4 + 1 + 2 + 3 + 4 + 1 + 2 + 3 + 4 + 1 + 2 + 3 + 4 +
Tabbed by Dave Vucko
Suggest correction
What's this?
You can suggest a correction to this tab. Community and Mods will review your correction and vote to approve or reject it.
comments
We did not receive enough feedback on this tab! Please rate:
print report bad tab
1 2 3 4 5
guest
You may want to rate the tab now too:
select rating
Please do not post tabs as comments. Select "correction" instead!