Oops, an error
Loading. Please wait.

If You Have Ghosts Bass Tab

version 2
version 2

Whole song

Interactive

2,377 views 15 this week
no commentswrite comment
1 2 3 4 5
x 5
add to favorites
launch autoscroll
font size
0
reset
guitar tuner
Autoscroll
slow
fast
+/-
esc
set tempo
stop
Help us to improve Ultimate-Guitar.com Take our survey!
×
Author
Band: Ghost
Song: If You Have Ghosts(Roky Erickson cover)

YouTube cover: https://www.youtube.com/watch?v=x0RQnEET0f4
Tab is created based on the cover from the YouTube so all credit goes to him.

\ = Slide down
~ = Sustain note
p = Pull off

(0:21)
G|---------------------|----------------------------------------|
D|---------------------|----------------------------------------|
A|------------------5~-|--------------00000000------------------|
E|-12\-0-00~-----------|-----22222222----------22222222222222---|
                              (8)      (8)         (14)

(0:35)
G|-----------7--------------------------------------------|
D|---------7----------------7------------4------------4---| x2
A|---5--5-----------------7------------4------------4-----|
E|------------------5--5---------2--2---------2--2--------|


(0:50)
G|--------------------------------------------------------|
D|--------------------------------------------------------|
A|-------------------5--5----5~--------------0----2-------|
E|--0--0----0~------------------------2-------------2~----|


(1:04)
G|-----------7--------------------------------------------|
D|---------7----------------7------------4------------4---| x2
A|---5--5-----------------7------------4------------4-----|
E|------------------5--5---------2--2---------2--2--------|


(1:18)
G|--------------------------------------------------------|
D|--------------------------------------------------------|
A|-------------------5--5----5~--------------0----2-------|
E|--0--0----0~------------------------2-------------2~----|

Solo:
(1:32)
G|-----------7--------------------------------------------|
D|---------7----------------7------------4------------4---| x2
A|---5--5-----------------7------------4------------4-----|
E|------------------5--5---------2--2---------2--2--------|


G|-----------9--------------9------------7------------7---|
D|---------9--------------9------------7------------7-----|
A|---7--7-----------7--7---------5--5---------5--5--------|
E|--------------------------------------------------------|


G|-----------------------|
D|-----------------------|
A|----------0----2-------|
E|---2-------------2~----|


(2:01)
G|-----------7--------------------------------------------|
D|---------7----------------7------------4------------4---| x2
A|---5--5-----------------7------------4------------4-----|
E|------------------5--5---------2--2---------2--2--------|


(2:15)
G|--------------------------------------------------------|
D|--------------------------------------------------------|
A|-------------------5--5----5~--------------0----2-------|
E|--0--0----0~------------------------2-------------2~----|


(2:29)
G|-----------7----------------------------------------9---|
D|---------7----------------4------------7----------9-----| x7
A|---5--5-----------------4------------7------7--7--------|
E|------------------2--2---------5--5---------------------|

Outro:
(3:22)
G|-----------7--------------------------------------------|
D|---------7----------------4-----------------------------|
A|---5--5-----------------4------------7~-----------------|
E|------------------2--2---------5--5---------------------|

Created by: StealthWave

Remember to give feedback if something's wrong!

Happy bassing:)!
Suggest correction
comments
print report bad tab
guest
You may want to rate the tab now too:
select rating
Wanna post a correction for this tab? Suggest correction