Oops, an error
Loading. Please wait.

If You Have Ghosts tab

version 2
version 2

Whole song

Interactive

by Ghost
1,339 views 48 this week
no commentswrite comment
1 2 3 4 5
3 more votes to show rating
add to favorites
×
Save as Personal and add changes to this tab that will be seen only by you. Learn more ›
×
You can save this tab as Personal to edit and correct it or add notes. All changes will be seen only by you. Learn more »
launch autoscroll
font size
0
reset
how to read this tab
guitar tuner
backing track
0:00
0:00
edit
Autoscroll
slow
fast
+/-
esc
set tempo
stop
If You Have Ghosts

Standard Tuning, but tuned down one whole step

|: = repeat sign
:| = repeat sign
^ = hammer-on/pull-off
/ = slide up
\ = slide down
() = harmonics
x = string mute
^b = bend
qr = Quick Rest
T = tapping

pm
== = Palm Mute



VERSE                Chords for acoustic version verse
d|-------------------|----0----------7-----------4--------------------
A|-------------------|----0----------7-----------4--------------------
F|---rest-for--------|----1----------8-----------4--------------------
C|---cellos/vocals---|----2----------9-----------6--------------------
G|-------------------|----2----------9-----------6--------------------
D|-------------------|----0----------7-----------4--------------------



d|--------------------------------------------------------------------------------
A|--------------------------------------------------------------------------------
F|--------------------------------------------------------------------------------
C|----------4----------2---------6-4----===============---------6-6-6-6-----------
G|--------4---4------2---2-----6--------6-6-6-6-6-6-6-6-6-6-6-6-6-6-6-6-----------
D|----4-2--------2-0---------4----------4-4-4-4-4-4-4-4-4-4-4-4-4-4-4-4-----------




VERSE                Chords for acoustic version verse
d|-------------------|----0----------7-----------4--------------------
A|-------------------|----0----------7-----------4--------------------
F|---rest------------|----1----------8-----------4--------------------
C|-------------------|----2----------9-----------6--------------------
G|-------------------|----2----------9-----------6--------------------
D|-------------------|----0----------7-----------4--------------------




d|--------------------------------------------------------------------------------
A|--------------------------------------------------------------------------------
F|--------------------------------------------------------------------------------
C|----------4----------2---------6-4----===============---------6-6-6-6-----------
G|--------4---4------2---2-----6--------6-6-6-6-6-6-6-6-6-6-6-6-6-6-6-6-----------
D|----4-2--------2-0---------4----------4-4-4-4-4-4-4-4-4-4-4-4-4-4-4-4-----------




VERSE
d|------0--------------------------2-----------0----------------------2-
A|----------------------2--------2---------------------------2------2---
F|--------------------4--------4---------------------------4------4-----
C|---2--------------6--------6--------------2------------6------6-------
G|------------2-------------------------------------2-------------------
D|----------------------------------------------------------------------




d|--------------------------------------------------------------------------------
A|--------------------------------------------------------------------------------
F|--------------------------------------------------------------------------------
C|----------4----------2---------6-4----===============---------6-6-6-6-----------
G|--------4---4------2---2-----6--------6-6-6-6-6-6-6-6-6-6-6-6-6-6-6-6-----------
D|----4-2--------2-0---------4----------4-4-4-4-4-4-4-4-4-4-4-4-4-4-4-4-----------




MIDDLE LEAD
d|------14----14----14---------------------------------------------------------------------
A|---12----12----12----12--11-------------------------------7/9-9-7/9-9-7--11^b-11---------
F|-------------------------------6^b^4--------------4-6/8---6/8-8-6/8-8-6----------11------
C|-------------------------------------6--------4-6-----------------------------------11---
G|------------------------------------------4-6--------------------------------------------
D|-----------------------------------------------------------------------------------------



MIDDLE LEAD
d|------------------------------------------------------------------------------
A|--11---------11---------11-----------12-11---------12-11-----12-11--9^11^9----
F|-----11^9^11----11^9^11-----11-9----------------------------------------------
C|-------------------------------------------14-13---------13-------------------
G|------------------------------------------------------------------------------
D|------------------------------------------------------------------------------



GUITAR UNDER LEAD PART
d|----------------------------------------------------------------------------------
A|----------------------------------------------------------------------------------
F|----9--9-9-9-------------------------------9--9-9-9-------------------------------
C|----9--9-9-9--9--9-9-9--6--6-6-6--6--6-6-6-9--9-9-9-9--9-9-9--6--6-6-6--6--6-6-6--
G|----7--7-7-7--9--9-9-9--6--6-6-6--6--6-6-6-7--7-7-7-9--9-9-9--6--6-6-6--6--6-6-6--
D|--------------7--7-7-7--4--4-4-4--4--4-4-4----------7--7-7-7--4--4-4-4--4--4-4-4--



GUITAR UNDER LEAD PART
d|--------------------------------------------------------------------
A|--------------------------------------------------------------------
F|-----------11\9-9------------------------------pm-------------------
C|---4-------11\9-9--------6-----6/9-9-----6-----=======-6-6-6--------
G|---4--------9\7-7--------6-----6/9-9-----6-----6-6-6-6-6-6-6--------
D|---2---------------------4-----4/7-7-----4-----4-4-4-4-4-4-4--------



VERSE
d|------0--------------------------2-----------0----------------------2-
A|----------------------2--------2---------------------------2------2---
F|--------------------4--------4---------------------------4------4-----
C|---2--------------6--------6--------------2------------6------6-------
G|------------2-------------------------------------2-------------------
D|----------------------------------------------------------------------




d|--------------------------------------------------------------------------------
A|--------------------------------------------------------------------------------
F|--------------------------------------------------------------------------------
C|----------4----------2---------6-4----6-----------------6-6-6-6-6-6-6-----------
G|--------4---4------2---2-----6--------6-----------------6-6-6-6-6-6-6-----------
D|----4-2--------2-0---------4----------4-----------------4-4-4-4-4-4-4-----------



If you have ghosts, you have everything....
d|---------------------------------------------------------------------------
A|---------------------------------------------------------------------------
F|---------------------------------------------------------------------------
C|---2-2-2-2--6-6-6-6--9-9-9-9--4-4-4-4--2-2-2-2--6-6-6-6--9-9-9-9--4-4-4-4--
G|---2-2-2-2--6-6-6-6--9-9-9-9--4-4-4-4--2-2-2-2--6-6-6-6--9-9-9-9--4-4-4-4--
D|---0-0-0-0--4-4-4-4--7-7-7-7--2-2-2-2--0-0-0-0--4-4-4-4--7-7-7-7--2-2-2-2--



If you have ghosts, you have everything....
d|---------------------------------------------------------------------------
A|---------------------------------------------------------------------------
F|---------------------------------------------------------------------------
C|---2-2-2-2--6-6-6-6--9-9-9-9--4-4-4-4--2-2-2-2--6-6-6-6--9-9-9-9--4-4-4-4--
G|---2-2-2-2--6-6-6-6--9-9-9-9--4-4-4-4--2-2-2-2--6-6-6-6--9-9-9-9--4-4-4-4--
D|---0-0-0-0--4-4-4-4--7-7-7-7--2-2-2-2--0-0-0-0--4-4-4-4--7-7-7-7--2-2-2-2--



OUTRO LEAD
d|-----------------------------------------------------------------------
A|---------12-11--9-----9----9/12-----------12-11-9--11^b----------------
F|-------9------------8---8--------------11---------------11-------------
C|---2/9-----------------------------2/9---------------------------------
G|-----------------------------------------------------------------------
D|-----------------------------------------------------------------------



OUTRO LEAD
d|-----------------------------------------------------------------------
A|---------12-11--9-----9----9/12-----------12-11-9--11^b----------------
F|-------9------------8---8--------------11---------------11-------------
C|---2/9-----------------------------2/9---------------------------------
G|-----------------------------------------------------------------------
D|-----------------------------------------------------------------------




OUTRO LEAD, 4 Xs
d||---------------||
A||:--14\4-4/11--:||
F||----X\X-X/-X---||
C||---11\1-1/-8---||
G||:-------------:||
D||---------------||




RHYTHM UNDER LEAD
d|---------------------------------------------------------------------------
A|---------------------------------------------------------------------------
F|---------------------------------------------------------------------------
C|---2-2-2-2--6-6-6-6--9-9-9-9--4-4-4-4--2-2-2-2--6-6-6-6--9-9-9-9--4-4-4-4--
G|---2-2-2-2--6-6-6-6--9-9-9-9--4-4-4-4--2-2-2-2--6-6-6-6--9-9-9-9--4-4-4-4--
D|---0-0-0-0--4-4-4-4--7-7-7-7--2-2-2-2--0-0-0-0--4-4-4-4--7-7-7-7--2-2-2-2--



RHYTHM UNDER LEAD
d|---------------------------------------------------------------------------
A|---------------------------------------------------------------------------
F|---------------------------------------------------------------------------
C|---2-2-2-2--6-6-6-6--9-9-9-9--4-4-4-4--2-2-2-2--6-6-6-6--9---9----4--------
G|---2-2-2-2--6-6-6-6--9-9-9-9--4-4-4-4--2-2-2-2--6-6-6-6--9---9----4--------
D|---0-0-0-0--4-4-4-4--7-7-7-7--2-2-2-2--0-0-0-0--4-4-4-4--7---7----2--------






            
            
Suggest correction
Creating personal tab
Creating personal tab
You can edit any tab online and save it as your Personal.

You can edit, replace or remove any tab part or add personal notes – all changes will be seen only by you.

Personal tabs can be accessed anytime from any device, even offline.
Learn more »
Give kudos to tab author, rate the tab!
1 2 3 4 5
comments
print report bad tab
guest
You may want to rate the tab now too:
select rating
Wanna post a correction for this tab? Suggest correction