Oops, an error
Loading. Please wait.

Im A Marionette bass

version 1
version 1

Whole song

Interactive

by Ghost
1,317 views 1 this week
2 commentsread comments
1 2 3 4 5
2 more votes to show rating
add to favorites
×
Save as Personal and add changes to this tab that will be seen only by you. Learn more ›
×
You can save this tab as Personal to edit and correct it or add notes. All changes will be seen only by you. Learn more »
launch autoscroll
font size
0
reset
guitar tuner
edit
Autoscroll
slow
fast
+/-
esc
set tempo
stop
G|---------------------------------------------------|
D|o-------------------------------------------------o|
A|o-------------------------------------------------o|
D|--9---9-9-6-8-9---9-9-6-8-9---9-9-6-8-9---9-9-6-8--|
    1 + 2 + 3 + 1 + 2 + 3 + 1 + 2 + 3 + 1 + 2 + 3 + 

G|------------------------------------------------------------------------|
D|------------------------------------------------------------------------|
A|-------------------------------------2----------------------------------|
D|-5-----------------2----------------------------------------------------|
   1 + 2 + 3 + 1 + 2 + 3 + 1 + 2 + 3 + 1 + 2 + 3 + 1 + 2 + 3 + 1 + 2 + 3 + 

0:16
G|---------------------------------------------------|
D|o-------------------------------------------------o|
A|o-------------------------------------------------o|
D|--9---9-9-6-8-9---9-9-6-8-9---9-9-6-8-9---9-9-6-8--|
    1 + 2 + 3 + 1 + 2 + 3 + 1 + 2 + 3 + 1 + 2 + 3 + 

G|------------------------------------------------------------------------|
D|-------------------2----------------------------------------------------|
A|-------------------------------------2----------------------------------|
D|-5----------------------------------------------------------------------|
   1 + 2 + 3 + 1 + 2 + 3 + 1 + 2 + 3 + 1 + 2 + 3 + 1 + 2 + 3 + 1 + 2 + 3 + 

G|---------------------------------------------------|
D|o-------------------------------------------------o|
A|o-------------------------------------------------o|
D|--9---9-9-6-8-9---9-9-6-8-9---9-9-6-8-9---9-9-6-8--|
    1 + 2 + 3 + 1 + 2 + 3 + 1 + 2 + 3 + 1 + 2 + 3 + 

G|------------------------------------------------------------------------|
D|-5-----------------2----------------------------------------------------|
A|-------------------------------------2----------------------------------|
D|------------------------------------------------------------------------|
   1 + 2 + 3 + 1 + 2 + 3 + 1 + 2 + 3 + 1 + 2 + 3 + 1 + 2 + 3 + 1 + 2 + 3 + 

0:43 Slower
G|-------------------------------------------------|
D|-------------------------------------------------|
A|-------------4-----------------------------------|
D|-5-----------------------5---8---5---------------|
   1 + 2 + 3 + 1 + 2 + 3 + 1 + 2 + 1 + 2 + 3 + 4 + 

G|---------------------------------------------------------|
D|---------------------------------------------------------|
A|-------------4-------------------------------4-----------|
D|-5-----------------------5---8---5-----------------------|
   1 + 2 + 3 + 1 + 2 + 3 + 1 + 2 + 1 + 2 + 3 + 1 + 2 + 3 + 

G|-------------------------------------------------|
D|-------------------------------------------------|
A|-------------2-----------------------------------|
D|-3-----------------------3---6---3---------------|
   1 + 2 + 3 + 1 + 2 + 3 + 1 + 2 + 1 + 2 + 3 + 4 + 

G|-----------------------------------------------------------------|
D|-----------------------------------------------------------------|
A|-------------2---------------------------------------------------|
D|-3-----------------------3---6---3-----------5---------------9-\-|
   1 + 2 + 3 + 1 + 2 + 3 + 1 + 2 + 1 + 2 + 3 + 1 + 2 + 3 + 1 + 2 + 

1:09 Reg Tempo
G|-------------------------------------------------|
D|-------------------------------------------------|
A|-------------------------------------------------|
D|-9---9-9-6-8-----9-9-6-8-----9-9-6-8-----9-9-6-8-|
   1 + 2 + 3 + 1 + 2 + 3 + 1 + 2 + 3 + 1 + 2 + 3 + 

G|-------------------------------------------------|
D|-------------------------------------------------|
A|---------------------------------------------8-9-|
D|-----9-9-6-8-----9-9-6-8-----9-9-6-8-9-9-9-9-----|
   1 + 2 + 3 + 1 + 2 + 3 + 1 + 2 + 3 + 1 + 2 + 3 + 

1:17
G|-|---------------------------------------------------|
D|-|o-------------------------------------------------o|
A|-|o-------------------------------------------------o|
D|o|--9---9-9-6-8-9---9-9-6-8-9---9-9-6-8-9---9-9-6-8--|
    1 + 2 + 3 + 1 + 2 + 3 + 1 + 2 + 3 + 1 + 2 + 3 + 

G|------------------------------------------------------------------------o|
D|-------------------------------------------------------------------------|
A|-------------------------------------2-----------------------------------|
D|-5-----------------2----------------------------------------------------o|
   1 + 2 + 3 + 1 + 2 + 3 + 1 + 2 + 3 + 1 + 2 + 3 + 1 + 2 + 3 + 1 + 2 + 3 + 

1:44 Slower
G|-------------------------------------------------|
D|-------------------------------------------------|
A|-------------4-----------------------------------|
D|-5-----------------------5---8---5---------------|
   1 + 2 + 3 + 1 + 2 + 3 + 1 + 2 + 1 + 2 + 3 + 4 + 

G|---------------------------------------------------------|
D|---------------------------------------------------------|
A|-------------4-------------------------------4-----------|
D|-5-----------------------5---8---5-----------------------|
   1 + 2 + 3 + 1 + 2 + 3 + 1 + 2 + 1 + 2 + 3 + 1 + 2 + 3 + 

G|-------------------------------------------------|
D|-------------------------------------------------|
A|-------------2-----------------------------------|
D|-3-----------------------3---6---3---------------|
   1 + 2 + 3 + 1 + 2 + 3 + 1 + 2 + 1 + 2 + 3 + 4 + 

G|---------------------------------------------------------|
D|---------------------------------------------------------|
A|-------------2-------------------------------------------|
D|-3-----------------------3---6---3-----------5-----------|
   1 + 2 + 3 + 1 + 2 + 3 + 1 + 2 + 1 + 2 + 3 + 1 + 2 + 3 + 

2:08
G|-------------------------------------------------|
D|-----------------------------3---2---------------|
A|-------------3---1---1---------------------------|
D|-3-----------------------3-----------------------|
   1 + 2 + 3 + 1 + 2 + 3 + 1 + 2 + 3 + 1 + 2 + 3 + 

G|-------------------------------------------------|
D|-----------------------------3-------5-5-5-5-5-5-|
A|-------------3---1---1-------------3-------------|
D|-3-----------------------3-------3---------------|
   1 + 2 + 3 + 1 + 2 + 3 + 1 + 2 + 3 + 1 + 2 + 3 + 

G|-------------------------------------------------|
D|-----------------------------3-------------------|
A|-------------3---1---1---------------------------|
D|-3-----------------------3-------2---------------|
   1 + 2 + 3 + 1 + 2 + 3 + 1 + 2 + 3 + 1 + 2 + 3 + 

G|-------------------------------------------------|
D|---------------------------------3---5-5-5-5-5-5-|
A|-------------3---1---1-------3-------------------|
D|-3-----------------------3-----------------------|
   1 + 2 + 3 + 1 + 2 + 3 + 1 + 2 + 3 + 1 + 2 + 3 + 

2:32
G|---------------------3---------------------------|
D|---------3-3-----------------3-------------------|
A|-------------3---1-------------------------------|
D|-3-3-3-3-----------------3-------2---------------|
   1 + 2 + 3 + 1 + 2 + 3 + 1 + 2 + 3 + 1 + 2 + 3 + 

G|---------------------3---------------------------|
D|-----3-3-3-3-----------------3-------5-5-5-5-5-5-|
A|-------------3---1---------------3---------------|
D|-3-3---------------------3-----------------------|
   1 + 2 + 3 + 1 + 2 + 3 + 1 + 2 + 3 + 1 + 2 + 3 + 

2:43
G|---------------------3---------------------------|
D|---------3-3-----------------3-------------------|
A|-------------3---1-------------------------------|
D|-3-3-3-3-----------------3-------2---------------|
   1 + 2 + 3 + 1 + 2 + 3 + 1 + 2 + 3 + 1 + 2 + 3 + 


G|---------------------3-------------------------------|
D|---------3-3---------------------3---5---------------|
A|-------------3---1-----------3-----------------------|
D|-3-3-3-3-----------------3-----------------------3---|
   1 + 2 + 3 + 1 + 2 + 3 + 1 + 2 + 3 + 1 + 2 + 3 + 1 +

Rest

3:01 reg tempo
G|-------------|-------------------------------------------------|
D|-------------|-------------------------------------------------|
A|-4-----3-----|-------------------------------------------------|
D|-------------|-9---9-9-6-8-9---9-9-6-8-9---9-9-6-8-9---9-9-6-8-|
   1 + 2 + 3 +   1 + 2 + 3 + 1 + 2 + 3 + 1 + 2 + 3 + 1 + 2 + 3 +

G|-------------------------------------------------|
D|-------------------------------------4-----------|
A|-------------------------------------------4-----|
D|-9---9-9-6-8-9---9-9-6-8-9---9-9-6-8-------------|
   1 + 2 + 3 + 1 + 2 + 3 + 1 + 2 + 3 + 1 + 2 + 3 +

3:11
G|--------------------------------------------------|
D|o-------------------------------------------------|
A|o-------------------------------------------------|
D|--9---9-9-9-9-9---9-9-9-9-9---9-9-9-9-9---9-9-9-9-|
    1 + 2 + 3 + 1 + 2 + 3 + 1 + 2 + 3 + 1 + 2 + 3 + 

G|-------------------------------------------------|
D|-------------------------------------------------|
A|-------------------------------------------------|
D|-7---7-7-7-7-7---7-7-7-7-7---7-7-7-7-7---7-7-7-7-|
   1 + 2 + 3 + 1 + 2 + 3 + 1 + 2 + 3 + 1 + 2 + 3 + 

G|--------------------------------------------------|
D|------------------------------------/14------12--o|
A|-------------------------2-----------------------o|
D|-5-----------2------------------------------------|
   1 + 2 + 3 + 1 + 2 + 3 + 1 + 2 + 3 + 1 + 2 + 3 + 

3:37
G|-------------------------------------------------|
D|-------------------------------------------------|
A|-------------4-----------------------------------|
D|-5-----------------------5---8---5---------------|
   1 + 2 + 3 + 1 + 2 + 3 + 1 + 2 + 1 + 2 + 3 + 4 + 

G|---------------------------------------------------------|
D|---------------------------------------------------------|
A|-------------4-------------------------------4-----------|
D|-5-----------------------5---8---5-------------------11\-|
   1 + 2 + 3 + 1 + 2 + 3 + 1 + 2 + 1 + 2 + 3 + 1 + 2 + 3 + 

G|-------------------------------------------------|
D|-------------------------------------------------|
A|-------------2-----------------------------------|
D|-3-----------------------3---6---3---------------|
   1 + 2 + 3 + 1 + 2 + 3 + 1 + 2 + 1 + 2 + 3 + 4 + 

G|---------------------------------------------------------|
D|---------------------------------------------------------|
A|-------------2-------------------------------------------|
D|-3-----------------------3---6---3-----------5-----------|
   1 + 2 + 3 + 1 + 2 + 3 + 1 + 2 + 1 + 2 + 3 + 1 + 2 + 3 + 

4:02 repeat till end
G|--------------------------------------------------|
D|o-----3-----------4-----------------------3-------|
A|o-------------2-------2---------------3-------3---|
D|--3-------3---------------3---6---3---------------|
    1 + 2 + 3 + 1 + 2 + 3 + 1 + 2 + 3 + 1 + 2 + 3 + 

G|----------------------------------------------------------|
D|-----3-----------4-----------------------3-----------5---o|
A|-------------2-------2---------------3-----------5-------o|
D|-3-------3---------------3---6---3-----------5------------|
   1 + 2 + 3 + 1 + 2 + 3 + 1 + 2 + 1 + 2 + 3 + 1 + 2 + 3 +
Tabbed by Dave Vucko

            
            
Suggest correction
Creating personal tab
Creating personal tab
You can edit any tab online and save it as your Personal.

You can edit, replace or remove any tab part or add personal notes – all changes will be seen only by you.

Personal tabs can be accessed anytime from any device, even offline.
Learn more »
Give kudos to tab author, rate the tab!
1 2 3 4 5
comments
print report bad tab
2 comments total.
0 reply
Anemo 50 Oct 08, 2013 11:48 PM

Dude, all your Ghost bass tabs are near perfect, except for the one fact that they play in D, not just in Drop D.
It's a tremendous effort nonetheless, and I thank you a lot for your work.

guest
You may want to rate the tab now too:
select rating
Wanna post a correction for this tab? Suggest correction