Oops, an error
Loading. Please wait.

Im A Marionette tab

version 1
version 1

Whole song

Interactive

by Ghost
899 views 12 this week
1 commentread comment
1 2 3 4 5
1 last vote to show rating
add to favorites
×
Save as Personal and add changes to this tab that will be seen only by you. Learn more ›
×
You can save this tab as Personal to edit and correct it or add notes. All changes will be seen only by you. Learn more »
launch autoscroll
font size
0
reset
how to read this tab
guitar tuner
edit
Autoscroll
slow
fast
+/-
esc
set tempo
stop
I'm a Marionette {ABBA cover}

Standard Tuning, but tuned down one whole step

|: = repeat sign
:| = repeat sign
^ = hammer-on/pull-off
/ = slide up
\ = slide down
() = harmonics
x = string mute
^b = bend
qr = Quick Rest

pm
== = Palm Mute
________________________


INTRO/VERSE {play three times} Guitar One
d||---------------------------------------------------------------------------------------
A||:--4-----4-----4--------4-----4-----4--------4-----4-----4--------4-----4-----4--------
F||---6-PM--6-----6--------6-----6-----6--------4-----4-----4--------4-----4-----4--------
C||---6-===-6-===-6-=====--6-===-6-===-6-=====--4-===-4-===-4-=====--4-===-4-===-4-=====--
G||:--4-4-4-4-4-4-4-4-4-4--4-4-4-4-4-4-4-4-4-4--2-2-2-2-2-2-2-2-2-2--2-2-2-2-2-2-2-2-2-2--
D||---------------------------------------------------------------------------------------


INTRO/VERSE Guitar One
d|------------------------------------------||
A|---------------------------------/7--5---:||
F|---2--------4---------6-------------------||
C|---2--------4---------6-------------------||
G|---0--------2---------4------------------:||
D|------------------------------------------||


INTRO/VERSE {play three times} Guitar Two
d||---------------------------------------------------------------------------------------
A||:--------------------------------------------------------------------------------------
F||---8-PM--8-----8--------8-----8-----8--------8-----8-----8--------8-----8-----8--------
C||---6-===-6-===-6-=====--6-===-6-===-6-=====--6-----6-----6--------6-----6-----6--------
G||:--4-4-4-4-4-4-4-4-4-4--4-4-4-4-4-4-4-4-4-4--x-===-x-===-x-=====--x-===-x-===-x-=====--
D||---------------------------------------------7-7-7-7-7-7-7-7-7-7--7-7-7-7-7-7-7-7-7-7--


INTRO/VERSE Guitar Two
d|------------------------------------------||
A|-----------------------------------------:||
F|---2--------4---------6----------/8--6----||
C|---2--------4---------6-------------------||
G|---0--------2---------4------------------:||
D|------------------------------------------||



CHORUS
d|--------------------------------------------------------------------------------
A|--------------------------------------------------------------------------------
F|-----------------------------------------------------------------------------2--
C|-----------------------------------------------------------------------------2--
G|----0---/6---0-3-0---0----/6---0-3-0--/6---6\-----4----1---------4-----1-----0--
D|-----------------------------------------------3-----3---3----3------3---3------



Play two times
D||---------------------------------------------------||
A||:--4------4------4---------4------4------4--------:||
F||---6-PM---6------6---------6------6------6---------||
C||---6-===--6-===--6-=====---6-===--6-===--6-=====---||
G||:--4-4-4--4-4-4--4-4-4-4---4-4-4--4-4-4--4-4-4-4--:||
D||---------------------------------------------------||



VERSE 2 {play two times}
d||---------------------------------------------------------------------------------------
A||:--4-----4-----4--------4-----4-----4--------4-----4-----4--------4-----4-----4--------
F||---6-PM--6-----6--------6-----6-----6--------4-----4-----4--------4-----4-----4--------
C||---6-===-6-===-6-=====--6-===-6-===-6-=====--4-===-4-===-4-=====--4-===-4-===-4-=====--
G||:--4-4-4-4-4-4-4-4-4-4--4-4-4-4-4-4-4-4-4-4--2-2-2-2-2-2-2-2-2-2--2-2-2-2-2-2-2-2-2-2--
D||---------------------------------------------------------------------------------------


VERSE 2
d|------------------------------------------||
A|---------------------------------/7--5---:||
F|---2--------4---------6-------------------||
C|---2--------4---------6-------------------||
G|---0--------2---------4------------------:||
D|------------------------------------------||


VERSE 2 {play two times} Guitar Two
d||---------------------------------------------------------------------------------------
A||:--------------------------------------------------------------------------------------
F||---8-PM--8-----8--------8-----8-----8--------8-----8-----8--------8-----8-----8--------
C||---6-===-6-===-6-=====--6-===-6-===-6-=====--6-----6-----6--------6-----6-----6--------
G||:--4-4-4-4-4-4-4-4-4-4--4-4-4-4-4-4-4-4-4-4--x-===-x-===-x-=====--x-===-x-===-x-=====--
D||---------------------------------------------7-7-7-7-7-7-7-7-7-7--7-7-7-7-7-7-7-7-7-7--


VERSE 2 Guitar Two
d|------------------------------------------||
A|-----------------------------------------:||
F|---2--------4---------6----------/8--6----||
C|---2--------4---------6-------------------||
G|---0--------2---------4------------------:||
D|------------------------------------------||



CHORUS
d|--------------------------------------------------------------------------------
A|--------------------------------------------------------------------------------
F|-----------------------------------------------------------------------------2--
C|-----------------------------------------------------------------------------2--
G|----0---/6---0-3-0---0----/6---0-3-0--/6---6\-----4----1---------4-----1-----0--
D|-----------------------------------------------3-----3---3----3------3---3------


SOLO
d|-------17-15----13-12-----10-9-------17-15-----13-12-----10-9-12----
A|----15-------15--------11---------15--------15--------11------------
F|--------------------------------------------------------------------
C|--------------------------------------------------------------------
G|--------------------------------------------------------------------
D|--------------------------------------------------------------------


SOLO
d|-------17-15----13-12-----10-9-------17-15-----13-12-----10-9-12----
A|----15-------15--------11---------15--------15--------11------------
F|--------------------------------------------------------------------
C|--------------------------------------------------------------------
G|--------------------------------------------------------------------
D|--------------------------------------------------------------------


SOLO, GUITAR ONE
d|-------17-15----13-12-----10-9-------17-15-----13-12-----10-9-12----
A|----15-------15--------11---------15--------15--------11------------
F|--------------------------------------------------------------------
C|--------------------------------------------------------------------
G|--------------------------------------------------------------------
D|--------------------------------------------------------------------


SOLO, GUITAR TWO
d|------15-13-----------------------------13-15-17^b17----------------
A|---------------15-13----11-10-----13-15--------------14-------------
F|---12-------12-------12--------12-----------------------------------
C|--------------------------------------------------------------------
G|--------------------------------------------------------------------
D|--------------------------------------------------------------------


SOLO, GUITAR ONE
d|-------17-15----13-12-----10-9-------17-15-----13-12-----10-9-12--15
A|----15-------15--------11---------15--------15--------11------------
F|--------------------------------------------------------------------
C|--------------------------------------------------------------------
G|--------------------------------------------------------------------
D|--------------------------------------------------------------------


SOLO, GUITAR TWO
d|------15-13-----------------------------13-15-17^b17----------------
A|---------------15-13----11-10-----13-15--------------14-------------
F|---12-------12-------12--------12--------------------------12-------
C|--------------------------------------------------------------------
G|--------------------------------------------------------------------
D|--------------------------------------------------------------------



Bridge to solo 2
d|--------------------------------------------------------------------------------------
A|--------------------------------------------------------------------------------------
F|--------------------------------------------------------------------------------8--7--
C|-5-PM-------------------5-PM-------------------5-PM------------------5-PM-------x--x--
G|-5-===================--5-===================--5-===================-5-=======--6--5--
D|-3-3-3-3-3-3-3-3-3-3-3--3-3-3-3-3-3-3-3-3-3-3--3-3-3-3-3-3-3-3-3-3-3-3-3-3-3-3--------


SOLO 2, GUITAR ONE
d|--------------------------------------------------------------------
A|--------------------------------------------------------------------
F|--------------9--9^b9-8----------------11^b11-----------------------
C|-/11---------------------11-11-10-9-8---------11-10-----------------
G|-----10-11-12-------------------------------------------------------
D|--------------------------------------------------------------------


UNDER SOLO 2, GUITAR TWO
d|-----------------------------------------------------------------------------
A|-----------------------------------------------------------------------------
F|-6---------6---------6---------6---------6---------6---------6---------------
C|-6---------6---------6---------6---------6---------6---------6----------6----
G|-4-4-4-4-4-4-4-4-4-4-4-4-4-4-4-4-4-4-4-4-4-4-4-4-4-4-4-4-4-4-4-4-4-4-4----6--
D|-----------------------------------------------------------------------------



VERSE 3 {play two times}
d||---------------------------------------------------------------------------------------
A||:--4-----4-----4--------4-----4-----4--------4-----4-----4--------4-----4-----4--------
F||---6-PM--6-----6--------6-----6-----6--------4-----4-----4--------4-----4-----4--------
C||---6-===-6-===-6-=====--6-===-6-===-6-=====--4-===-4-===-4-=====--4-===-4-===-4-=====--
G||:--4-4-4-4-4-4-4-4-4-4--4-4-4-4-4-4-4-4-4-4--2-2-2-2-2-2-2-2-2-2--2-2-2-2-2-2-2-2-2-2--
D||---------------------------------------------------------------------------------------


VERSE 3
d|------------------------------------------||
A|---------------------------------/7--5---:||
F|---2--------4---------6-------------------||
C|---2--------4---------6-------------------||
G|---0--------2---------4------------------:||
D|------------------------------------------||


VERSE 3 {play two times} Guitar Two
d||---------------------------------------------------------------------------------------
A||:--------------------------------------------------------------------------------------
F||---8-PM--8-----8--------8-----8-----8--------8-----8-----8--------8-----8-----8--------
C||---6-===-6-===-6-=====--6-===-6-===-6-=====--6-----6-----6--------6-----6-----6--------
G||:--4-4-4-4-4-4-4-4-4-4--4-4-4-4-4-4-4-4-4-4--x-===-x-===-x-=====--x-===-x-===-x-=====--
D||---------------------------------------------7-7-7-7-7-7-7-7-7-7--7-7-7-7-7-7-7-7-7-7--


VERSE 3 Guitar Two
d|------------------------------------------||
A|-----------------------------------------:||
F|---2--------4---------6----------/8--6----||
C|---2--------4---------6-------------------||
G|---0--------2---------4------------------:||
D|------------------------------------------||


CHORUS
d|--------------------------------------------------------------------------------
A|--------------------------------------------------------------------------------
F|-----------------------------------------------------------------------------2--
C|-----------------------------------------------------------------------------2--
G|----0---/6---0-3-0---0----/6---0-3-0--/6---6\-----4----1---------4-----1-----0--
D|-----------------------------------------------3-----3---3----3------3---3------


OUTRO
d|--------------------------------------------------------------------
A|--------------------------------------------------------------------
F|--------------------------------------------------------------------
C|--------------------------------------------------------------------
G|-----4-----1---------4-----1----0-------4----1--------4----1----0---
D|--3------3---3----3------3---3-------3-----3---3---3-----3---3------


OUTRO fade out
d|--------------------------------------------------------------------
A|--------------------------------------------------------------------
F|--------------------------------------------------------------------
C|--------------------------------------------------------------------
G|-----4-----1---------4-----1----0-------4----1--------4----1----0---
D|--3------3---3----3------3---3-------3-----3---3---3-----3---3------

            
            
Suggest correction
Creating personal tab
Creating personal tab
You can edit any tab online and save it as your Personal.

You can edit, replace or remove any tab part or add personal notes – all changes will be seen only by you.

Personal tabs can be accessed anytime from any device, even offline.
Learn more »
Give kudos to tab author, rate the tab!
1 2 3 4 5
comments
print report bad tab
1 comment total.
0 reply
MrDARK513 10 Nov 04, 2016 12:13 AM

It's a great tab! Good job :)

guest
You may want to rate the tab now too:
select rating
Wanna post a correction for this tab? Suggest correction