Oops, an error
Loading. Please wait.

Jigolo Har Megiddo bass

version 1
version 1

Whole song

Interactive

by Ghost
5,968 views 9 this week
1 commentread comment
1 2 3 4 5
x 4
add to favorites
×
Save as Personal and add changes to this tab that will be seen only by you. Learn more ›
×
You can save this tab as Personal to edit and correct it or add notes. All changes will be seen only by you. Learn more »
launch autoscroll
font size
0
reset
guitar tuner
backing track
0:00
0:00
edit
Autoscroll
slow
fast
+/-
esc
set tempo
stop
Eighth notes played as
D|-1---1-1---1-1---1-1---1-|
   1   + 2   + 3   + 4   + 
Instead of
D|-1---1---1---1---1---1---1---1---|
   1 e + a 2 e + a 3 e + a 4 e + a

G|------------------------------------------------/-7---7---7-------|
D|o-----------------------------------------------------------------|
A|o-----------------------------------------------------------------|
D|--7-------7---\---5-------5---\---3-------3-----------------------|
    1 e + a 2 e + a 3 e + a 4 e + a 1 e + a 2 e + a 3 e + a 4 e + a

G|-----------------------------------------------/-7---7-/-7---7----|
D|-----------------------------------------------------------------o|
A|-----------------------------------------------------------------o|
D|-7-------7---\---5-------5---\---3-------3------------------------|
   1 e + a 2 e + a 3 e + a 4 e + a 1 e + a 2 e + a 3 e + a 4 e + a

0:16
G|-----------------------------------------------------------------|
D|-----------------------------------------------------------------|
A|-----------------------------------------------------------------|
D|-7-------7---\---5-------5---\---3-------3---\---0-------0---5---|
   1 e + a 2 e + a 3 e + a 4 e + a 1 e + a 2 e + a 3 e + a 4 e + a

G|-----------------------------------------------------------------|
D|-----------------------------------------------------------------|
A|-------------------------3---------------------------------------|
D|-7---5---7---5-------5-------3---3-----------0---2h3p2-------5---|
   1 e + a 2 e + a 3 e + a 4 e + a 1 e + a 2 e + a 3 e + a 4 e + a

0:23
G|-----------------------------------------------------------------|
D|-------------------------------------------------------------12--|
A|-----------------------------------------------------------------|
D|-7-------7---\---5-------5---\---3-------3---\---0-------0-------|
   1 e + a 2 e + a 3 e + a 4 e + a 1 e + a 2 e + a 3 e + a 4 e + a

G|-------------------------12---------------------------------------|
D|-14--12--14--12------12------10--10----------7---9h10p9-----------|
A|------------------------------------------------------------------|
D|------------------------------------------------------------------|
   1 e + a 2 e + a 3 e + a 4 e + a 1 e + a 2 e + a 3 e  + a 4 e + a

0:30
G|-----------------------------------------------------------------|
D|-----------------------------------------------------------------|
A|-----------------------------------------------------------------|
D|-7-------7---\---5-------5---\---3-------3---\---0-------0---5---|
   1 e + a 2 e + a 3 e + a 4 e + a 1 e + a 2 e + a 3 e + a 4 e + a


G|-----------------------------------------------------------------|
D|-----------------------------------------------------------------|
A|-----------------8-------8-------9-------9-------10------10------|
D|-7-------7-------------------------------------------------------|
   1 e + a 2 e + a 3 e + a 4 e + a 1 e + a 2 e + a 3 e + a 4 e + a

0:37
G|-----------------------------------------------------------------|
D|-----------------------------------------------------------------|
A|-----------------------------------------------------------------|
D|-7-------7---\---5-------5---\---3-------3---\---0-------3-------|
   1 e + a 2 e + a 3 e + a 4 e + a 1 e + a 2 e + a 3 e + a 4 e + a

G|-----------------------------------------------------------------|
D|-----------------------------------------------------------------|
A|---------------------------------5-------------------------------|
D|-5---------------------------------------------------------------|
   1 e + a 2 e + a 3 e + a 4 e + a 1 e + a 2 e + a 3 e + a 4 e + a

G|-------------------------------------------------------------------------|
D|-------------------------------------------------------------------------|
A|-3-------------------------------10-10-10--10-10-10--10-10-10--10-10-10--|
D|-------------------------------------------------------------------------|
   1 e + a 2 e + a 3 e + a 4 e + a Tri-pl-et Tri-pl-et Tri-pl-et Tri-pl-et 

0:48
G|-----------------------------------------------------------------|
D|-----------------------------------------------------------------|
A|-5---5---5---5---5---5---5---5---1---1---1---1---1---1---1---1---|
D|-----------------------------------------------------------------|
   1 e + a 2 e + a 3 e + a 4 e + a 1 e + a 2 e + a 3 e + a 4 e + a

G|-------------------------------------------------------------------------|
D|-------------------------------------------------------------------------|
A|-8---8---8---8---8---8---8---8---12-12-12--12-12-12--12-12-12--12--------|
D|-------------------------------------------------------------------------|
   1 e + a 2 e + a 3 e + a 4 e + a Tri-pl-et Tri-pl-et Tri-pl-et 4 e + a 

0:56
G|-----------------------------------------------------------------|
D|-----------------------------------------------------------------|
A|-----------------------------------------------------------------|
D|-7-------7---\---5-------5---\---3-------3---\---0-------0---5---|
   1 e + a 2 e + a 3 e + a 4 e + a 1 e + a 2 e + a 3 e + a 4 e + a

G|-----------------------------------------------------------------|
D|-----------------------------------------------------------------|
A|-------------------------3---------------------------------------|
D|-7---5---7---5-------5-------3---3-----------0---2h3p2-------5---|
   1 e + a 2 e + a 3 e + a 4 e + a 1 e + a 2 e + a 3 e + a 4 e + a

1:03
G|-----------------------------------------------------------------|
D|-------------------------------------------------------------9---|
A|-----------------------------------------------------------------|
D|-7-------7---\---5-------5---\---3-------3---\---0-------0-------|
   1 e + a 2 e + a 3 e + a 4 e + a 1 e + a 2 e + a 3 e + a 4 e + a

G|-------------------------9-----------------------9h10p9-----------|
D|-10--9---10--9-------9-------7---7-----------7--------------------|
A|------------------------------------------------------------------|
D|------------------------------------------------------------------|
   1 e + a 2 e + a 3 e + a 4 e + a 1 e + a 2 e + a 3 e  + a 4 e + a

1:10
G|-----------------------------------------------------------------|
D|-----------------------------------------------------------------|
A|-----------------------------------------------------------------|
D|-7-------7---\---5-------5---\---3-------3---\---0-------0---5---|
   1 e + a 2 e + a 3 e + a 4 e + a 1 e + a 2 e + a 3 e + a 4 e + a

G|-----------------------------------------------------------------|
D|-----------------------------------------------------------------|
A|-----------------8-------8-------9-------9-------10------10------|
D|-7-------7-------------------------------------------------------|
   1 e + a 2 e + a 3 e + a 4 e + a 1 e + a 2 e + a 3 e + a 4 e + a

1:17
G|-----------------------------------------------------------------|
D|-----------------------------------------------------------------|
A|-----------------------------------------------------------------|
D|-7-------7---\---5-------5---\---3-------3---\---0-------3-------|
   1 e + a 2 e + a 3 e + a 4 e + a 1 e + a 2 e + a 3 e + a 4 e + a

G|-----------------------------------------------------------------|
D|-----------------------------------------------------------------|
A|---------------------------------5-------------------------------|
D|-5---------------------------------------------------------------|
   1 e + a 2 e + a 3 e + a 4 e + a 1 e + a 2 e + a 3 e + a 4 e + a

G|-------------------------------------------------------------------------|
D|-------------------------------------------------------------------------|
A|-3-------------------------------10-10-10--10-10-10--10-10-10--10-10-10--|
D|-------------------------------------------------------------------------|
   1 e + a 2 e + a 3 e + a 4 e + a Tri-pl-et Tri-pl-et Tri-pl-et Tri-pl-et 

1:29
G|-----------------------------------------------------------------|
D|-----------------------------------------------------------------|
A|-5---5---5---5---5---5---5---5---1---1---1---1---1---1---1---1---|
D|-----------------------------------------------------------------|
   1 e + a 2 e + a 3 e + a 4 e + a 1 e + a 2 e + a 3 e + a 4 e + a

G|-----------------------------------------------------14-14-14--14--\----|
D|------------------------------------------------------------------------|
A|-8---8---8---8---8---8---8---8---12-12-12--12-12-12---------------------|
D|------------------------------------------------------------------------|
   1 e + a 2 e + a 3 e + a 4 e + a Tri-pl-et Tri-pl-et Tri-pl-et 4 e + a 

1:36
G|-------------------------------------------------------------------|
D|o-----------------------------------------8-----------------------o|
A|o-5-------0---5---3-------7---8-------------------------------3---o|x7
D|----------------------------------8-----------8---5-------8--------|here
    1 e + a 2 e + a 3 e + a 4 e + a 1 e + a 2 e + a 3 e + a 4 e + a

2:01
G|-----------------------------------------------------------------|
D|-----------------------------------------8-----------------------|
A|-5-------0---5---3-------7---8-----------------------------------|
D|---------------------------------8---------------5----8----3-----|
   1 e + a 2 e + a 3 e + a 4 e + a 1 e + a 2 e + a Tri- pl-  let

2:04
G|-----------------------------------------------------------------|
D|---------2---------------3---------------2---/---10------9-------|
A|-----------------------------------------------------------------|
D|-2-----------2---3-----------3---2-------------------------------|
   1 e + a 2 e + a 3 e + a 4 e + a 1 e + a 2 e + a 3 e + a 4 e + a

G|-----------------------------------------------------------------|
D|-8---\---0---------------0---------------0-----------------------|
A|-----------------1---------------1-------------------------------|
D|-------------------------------------------------8---\---0-------|
   1 e + a 2 e + a 3 e + a 4 e + a 1 e + a 2 e + a 3 e + a 4 e + a

2:13
G|-----------------------------------------------------------------|
D|---------2---------------3---------------2---/---10------9-------|
A|-----------------------------------------------------------------|
D|-2-----------2---3-----------3---2-------------------------------|
   1 e + a 2 e + a 3 e + a 4 e + a 1 e + a 2 e + a 3 e + a 4 e + a

G|-----------------------------------------------------------------|
D|-3---------------3---------------3---------------3---------------|
A|-----------------------------------------------------------------|
D|---3-----3---------3-----3---------3-----3---------3-----3-------|
   1 e + a 2 e + a 3 e + a 4 e + a 1 e + a 2 e + a 3 e + a 4 e + a

2:19
G|-----------------------------------------------------------------|
D|---------2---------------3---------------2---/---10------9-------|
A|-----------------------------------------------------------------|
D|-2-----------2---3-----------3---2-------------------------------|
   1 e + a 2 e + a 3 e + a 4 e + a 1 e + a 2 e + a 3 e + a 4 e + a

G|-----------------------------------------------------------------|
D|-8---\---0---------------0---------------0-----------------------|
A|-----------------1---------------1-------------------------------|
D|-------------------------------------------------8---\---0-------|
   1 e + a 2 e + a 3 e + a 4 e + a 1 e + a 2 e + a 3 e + a 4 e + a

2:26
G|-----------------------------------------------------------------|
D|---------2---------------3---------------2---/---10------9-------|
A|-----------------------------------------------------------------|
D|-2-----------2---3-----------3---2-------------------------------|
   1 e + a 2 e + a 3 e + a 4 e + a 1 e + a 2 e + a 3 e + a 4 e + a

G|-----------------------------------------------------------------|
D|-3---------------3---------------3---------------3---------------|
A|-----------------------------------------------------------------|
D|---3-----3---------3-----3---------3-----3---------3-----5-------|
   1 e + a 2 e + a 3 e + a 4 e + a 1 e + a 2 e + a 3 e + a 4 e + a

2:34
G|-----------------------------------------------------------------|
D|-----------------------------------------------------------------|
A|-------------------------3-----------------------------------3---|
D|-7---\-----------------------3---------------0---2h3p2-----------|
   1 e + a 2 e + a 3 e + a 4 e + a 1 e + a 2 e + a 3 e + a 4 e + a

2:37
G|-----------------------------------------------------------------|
D|-----------------------------------------------------------------|
A|-----------------------------------------------------------------|
D|-7---r---7---\---5-------5---\---3-------3---\---0-------0-------|
   1 e + a 2 e + a 3 e + a 4 e + a 1 e + a 2 e + a 3 e + a 4 e + a

G|-----------------------------------------------------------------|
D|-----------------------------------------------------------------|
A|-----------------------------------------------------------------|
D|-7-------7---\---5-------5---\---3-------3---\---0-------0---5---|
   1 e + a 2 e + a 3 e + a 4 e + a 1 e + a 2 e + a 3 e + a 4 e + a

G|-----------------------------------------------------------------|
D|-----------------------------------------------------------------|
A|-------------------------3---------------------------------------|
D|-7---5---7---5-------5-------3---3-----------0---2h3p2-------/---|
   1 e + a 2 e + a 3 e + a 4 e + a 1 e + a 2 e + a 3 e + a 4 e + a

2:49
G|-----------------------------------------------------------------|
D|-----------------------------------------------------------------|
A|-----------------------------------------------------------------|
D|-7-------7---\---5-------5---\---3-------3---\---0-------0---5---|
   1 e + a 2 e + a 3 e + a 4 e + a 1 e + a 2 e + a 3 e + a 4 e + a

G|-----------------------------------------------------------------|
D|-----------------------------------------------------------------|
A|-----------------8-------8-------9-------9-------10------10------|
D|-7-------7-------------------------------------------------------|
   1 e + a 2 e + a 3 e + a 4 e + a 1 e + a 2 e + a 3 e + a 4 e + a

2:56
G|-----------------------------------------------------------------|
D|-----------------------------------------------------------------|
A|-----------------------------------------------------------------|
D|-7-------7---\---5-------5---\---3-------3---\---0-------3-------|
   1 e + a 2 e + a 3 e + a 4 e + a 1 e + a 2 e + a 3 e + a 4 e + a

G|-----------------------------------------------------------------|
D|-----------------------------------------------------------------|
A|---------------------------------5-------------------------------|
D|-5---------------------------------------------------------------|
   1 e + a 2 e + a 3 e + a 4 e + a 1 e + a 2 e + a 3 e + a 4 e + a

G|-------------------------------------------------------------------------|
D|-------------------------------------------------------------------------|
A|-3-------------------------------10-10-10--10-10-10--10-10-10--10-10-10--|
D|-------------------------------------------------------------------------|
   1 e + a 2 e + a 3 e + a 4 e + a Tri-pl-et Tri-pl-et Tri-pl-et Tri-pl-et 

3:07
G|-----------------------------------------------------------------|
D|-----------------------------------------------------------------|
A|-5---5---5---5---5---5---5---5---1---1---1---1---1---1---1---1---|
D|-----------------------------------------------------------------|
   1 e + a 2 e + a 3 e + a 4 e + a 1 e + a 2 e + a 3 e + a 4 e + a

G|------------------------------------------------------------------------|
D|------------------------------------------------------------------------|
A|-8---8---8---8---8---8---8---8---12-12-12--12-12-12--15-15-15--15---\---|
D|------------------------------------------------------------------------|
   1 e + a 2 e + a 3 e + a 4 e + a Tri-pl-et Tri-pl-et Tri-pl-et 4 e + a 

3:14
G|-----------------------------------------------------------------|
D|-----------------------------------------------------------------|
A|---------------------------------1-------1-------1-------1-------|
D|-0-------0-------0-------0---------------------------------------|
   1 e + a 2 e + a 3 e + a 4 e + a 1 e + a 2 e + a 3 e + a 4 e + a

G|-----------------------------------------------------------------|
D|-----------------------------------------------------------------|
A|-------------------------------------------------7-------6-------|
D|-3-------3-------3-------3-------3-------3-----------------------|
   1 e + a 2 e + a 3 e + a 4 e + a 1 e + a 2 e + a 3 e + a 4 e + a

3:21
G|-----------------------------------------------------------------|
D|-----------------------------------------------------------------|
A|---------------------------------1---1---1-------1---4---1---1---|
D|-0-------0---0---0-------0---0-----------------------------------|
   1 e + a 2 e + a 3 e + a 4 e + a 1 e + a 2 e + a 3 e + a 4 e + a

G|-----------------------------------------------------------------|
D|-----------------------------------------------------------------|
A|---------------------------------------------------------6-------|
D|-3-------3---3---3-------3---3---3-------3---3---2---------------|
   1 e + a 2 e + a 3 e + a 4 e + a 1 e + a 2 e + a 3 e + a 4 e + a

3:28
G|-----------------------------------------------------------------|
D|-----------------------------------------------------------------|
A|---------------------------------1---1---1-------1-------1---1---|
D|-0-------0---0---0-------0---0-----------------------------------|
   1 e + a 2 e + a 3 e + a 4 e + a 1 e + a 2 e + a 3 e + a 4 e + a

G|-----------------------------------------------------------------|
D|-----------------------------------------------------------------|
A|-----------------------------------------------------------------|
D|-3-------3---3---3-------3---3---3-------3---3---2-------1-------|
   1 e + a 2 e + a 3 e + a 4 e + a 1 e + a 2 e + a 3 e + a 4 e + a

3:35
G|-----------------------------------------------------------------|
D|-----------------------------------------------------------------|
A|---------------------------------1---1---1---1---4-------4---1---|
D|-0-------0---0---0-------0---0-----------------------------------|
   1 e + a 2 e + a 3 e + a 4 e + a 1 e + a 2 e + a 3 e + a 4 e + a

G|-----------------------------------------------------------------|
D|-----------------------------------------------------------------|
A|-------------------------------------------------7-------6-------|
D|-3-------3---3---3-------3---3---3-------3---3-------------------|
   1 e + a 2 e + a 3 e + a 4 e + a 1 e + a 2 e + a 3 e + a 4 e + a

3:43
G|-----------------------------------------------------------------|
D|-----------------------------------------------------------------|
A|---------------------------------1---1---1---1---4-------4---1---|
D|-0-------0---0---0-------0---0-----------------------------------|
   1 e + a 2 e + a 3 e + a 4 e + a 1 e + a 2 e + a 3 e + a 4 e + a

G|-------------------------------------------------------------------------|
D|-------------------------------------------------------------------------|
A|-------------------------------------------------------------------------|
D|-3-------3---3---3-------3---3---3-------3---3---2-------1-------0-------|
   1 e + a 2 e + a 3 e + a 4 e + a 1 e + a 2 e + a 3 e + a 4 e + a
Tabbed by Dave Vucko

            
            
Suggest correction
Creating personal tab
Creating personal tab
You can edit any tab online and save it as your Personal.

You can edit, replace or remove any tab part or add personal notes – all changes will be seen only by you.

Personal tabs can be accessed anytime from any device, even offline.
Learn more »
comments
print report bad tab
1 comment total.
0 reply
giagiaprezoni 10 Sep 03, 2015 01:52 PM

with magic potion niveous

guest
You may want to rate the tab now too:
select rating
Wanna post a correction for this tab? Suggest correction