Oops, an error
Loading. Please wait.

Jigolo Har Megiddo tab

version 1
version 1

Whole song

Interactive

by Ghost
5,669 views 78 this week
no commentswrite comment
1 2 3 4 5
x 3
add to favorites
×
Save as Personal and add changes to this tab that will be seen only by you. Learn more ›
×
You can save this tab as Personal to edit and correct it or add notes. All changes will be seen only by you. Learn more »
launch autoscroll
font size
0
reset
how to read this tab
guitar tuner
backing track
0:00
0:00
edit
Autoscroll
slow
fast
+/-
esc
set tempo
stop
[Intro]

PLAY FOUR TIMES
d||---------------------------||
A||:-------------------------:||
F||---4-4--4-4--12-12--9-9-9--||
C||---4-4--4-4--12-12--9-9-9--||
G||:--2-2--0-0--10-10--7-7-7-:||
D||---------------------------||


[Verse]

PLAY TWICE
d||-------------------------------------------------------||
A||:--12-12--12-12--8-8--8-8-----------------------------:||
F||---11-11--11-11--7-7--9-9------------------------------||
C||----9--9---7--7--5-5--9-9------------------------------||
G||:-----------------------------------0-5---------------:||
D||---------------------------7-5-7-5------3---0-2^3-2----||


d|-----------------------------------------------------------|
A|----12-12--12-12--8-8--8-8--12-12--------------------------|
F|----11-11--11-11--7-7--9-9--11-11--12-12---------14-14-----|
C|-----9--9---7--7--5-5--9-9---9--9--12-12--14-14--14-14-----|
G|-----------------------------------10-10--11-11--12-12-----|
D|-----------------------------------------------------------|


d|------------------------------------------|
A|---12-12--12-12--8-8--------------3-------|
F|---11-11--11-11--7-7--9-9---2-----2--2----|
C|----9--9---7--7--5-5--9-9---2--2--0--2----|
G|----------------------7-7---0--2-----0----|
D|-------------------------------0----------|


[Chorus]

“I AM THE ONE LASCIVIOUS…”
d|---------------------------------------------------------------|
A|----------------------8-8-8-8--12-12-12-12-12-12-12-12-12-12---|
F|----9-9-9-9--5-5-5-5--7-7-7-7--11-11-11-11-11-11-11-11-11-11---|
C|----9-9-9-9--5-5-5-5--5-5-5-5---9--9--9--9--9--9--9--9--9--9---|
G|----7-7-7-7--3-3-3-3-------------------------------------------|
D|---------------------------------------------------------------|


[Verse]

PLAY TWICE
d||-------------------------------------------------------||
A||:--12-12--12-12--8-8--8-8-----------------------------:||
F||---11-11--11-11--7-7--9-9------------------------------||
C||----9--9---7--7--5-5--9-9------------------------------||
G||:-----------------------------------0-5---------------:||
D||---------------------------7-5-7-5------3---0-2^3-2----||


d|-----------------------------------------------------------|
A|----12-12--12-12--8-8--8-8--12-12--------------------------|
F|----11-11--11-11--7-7--9-9--11-11--12-12---------14-14-----|
C|-----9--9---7--7--5-5--9-9---9--9--12-12--14-14--14-14-----|
G|-----------------------------------10-10--11-11--12-12-----|
D|-----------------------------------------------------------|


d|------------------------------------------|
A|---12-12--12-12--8-8--------------3-------|
F|---11-11--11-11--7-7--9-9---2-----2--2----|
C|----9--9---7--7--5-5--9-9---2--2--0--2----|
G|----------------------7-7---0--2-----0----|
D|-------------------------------0----------|


[Chorus]

“I AM THE SON LASCIVIOUS…”
d|---------------------------------------------------------------|
A|----------------------8-8-8-8--12-12-12-12-12-12-12-12-12-12---|
F|----9-9-9-9--5-5-5-5--7-7-7-7--11-11-11-11-11-11-11-11-11-11---|
C|----9-9-9-9--5-5-5-5--5-5-5-5---9--9--9--9--9--9--9--9--9--9---|
G|----7-7-7-7--3-3-3-3-------------------------------------------|
D|---------------------------------------------------------------|


[Solo]

d|---------------------------------------------------------------------------------------------|
A|---7^b7-8-----7^b7-------7/12-10-------------------------17^15----17--17^15----17------------|
F|----------9--------7-------------12-11--9-11^12-9---/14--------16-----------16---------------|
C|---------------------9-----------------------------------------------------------------------|
G|---------------------------------------------------------------------------------------------|
D|---------------------------------------------------------------------------------------------|


d|-12-12-15-15-15-15-15-15-14-14-14-14-14-14-12-12-12------15^12----15^12-----14^10----14^10-----|
A|------------------------------------------------------12-------12-------12--------10-------10--|
F|-----------------------------------------------------------------------------------------------|
C|-----------------------------------------------------------------------------------------------|
G|-----------------------------------------------------------------------------------------------|
D|-----------------------------------------------------------------------------------------------|


d|-12^8---12^8-----------------------------------------------------------------------------------|
A|------8------8--12^b12---------------------------------------------------------------------14--|
F|------------------------11-9---7----------------------------9----9---9-11-9-11--11-12-14---15--|
C|-----------------------------9--------5---5-7-7^b7-5-7--5-7---9----9---------------------------|
G|----------------------------------5^7---7------------------------------------------------------|
D|-----------------------------------------------------------------------------------------------|


[Bridge]

d|--------------------------------------------------------------------------------|
A|-14-----15--14-12-10--------------------------------15--14-12-10--14------------|
F|-15-----16--14-12-11--------------------------------16--14-12-11--15------------|
C|--------17--16-14-12-------16----------16-----------17--16-14-12----------------|
G|---------------------12/13----13-13/14----14-13---------------------------------|
D|--------------------------------------------------------------------------------|


d|-------------------------------------------------------------------------------------------|
A|--15--14-12-10-----------------------------15--14-12-10------------------------------------|
F|--16--14-12-11-----------------------------16--14-12-11------------------------------------|
C|--17--16-14-12-------16----------16--------17--16-14-12---9\---qr--0-5-----------------7---|
G|---------------12/13----13-13/14----14-13-----------------9\---------5-----------------5---|
D|----------------------------------------------------------7\---------3-------0--2-3-2------|


[Last Verse]

GUITAR ONE
d|---------------------------------------------------------------------------|
A|------------------------12-12---------8-8--8-8-----------------------------|
F|---4-4------12-12--9-9--11-11--11-11--7-7--9-9-----------------------------|
C|---4-4-4-4--12-12--9-9---9--9---7--7--5-5--9-9-----------------------------|
G|---2-2-0-0--10-10--7-7-------------------------------------5---------------|
D|------------------------------------------------7-5-7-5--5---3--0-2^3-2----|

GUITAR TWO
d|-------------------------------------------------------------------2^3-2---|
A|------------------------12-12---------8-8--8-8-------------7-0---0---------|
F|---4-4------12-12--9-9--11-11--11-11--7-7--9-9--7-6-7-6--6-----------------|
C|---4-4-4-4--12-12--9-9---9--9---7--7--5-5--9-9-----------------------------|
G|---2-2-0-0--10-10--7-7-----------------------------------------------------|
D|---------------------------------------------------------------------------|

GUITAR ONE
d|-----------------------------------------------------------|
A|----12-12--12-12--8-8--8-8--12-12--------------------------|
F|----11-11--11-11--7-7--9-9--11-11--12-12---------14-14-----|
C|-----9--9---7--7--5-5--9-9---9--9--12-12--14-14--14-14-----|
G|-----------------------------------10-10--11-11--12-12-----|
D|-----------------------------------------------------------|

GUITAR ONE
d|------------------------------------------|
A|---12-12--12-12--8-8--------------3-------|
F|---11-11--11-11--7-7--9-9---2--9--2--2----|
C|----9--9---7--7--5-5--9-9---2--9--0--2----|
G|----------------------7-7---0--7-----0----|
D|-------------------------------0----------|

GUITAR TWO
d|--------------------------------------------------------|
A|--------------------------------------------------------|
F|-4-4----------------------------12-12---------14-14-----|
C|-4-4--4-4---5--5--2--2---9--9---12-12--14-14--14-14-----|
G|-2-2--0-0---5--5--2--2---9--9---10-10--11-11--12-12-----|
D|------------3--3--0--0---7--7---------------------------|

GUITAR TWO
d|--------------------------------------------------------------------|
A|--------------------------------3-----------------------------------|
F|---4-4------------------2---9---2----2------------------------------|
C|---4-4--4-4--5-5-2-2----2---9---0----2------------------------------|
G|---2-2--0-0--5-5-2-2----0---7--------0------------------------------|
D|-------------3-3-0-0--------0---------------------------------------|


[Chorus]

“I AM THE ONE LASCIVIOUS…”
d|---------------------------------------------------------------|
A|----------------------8-8-8-8--12-12-12-12-12-12-15-15-15-15---|
F|----9-9-9-9--5-5-5-5--7-7-7-7--11-11-11-11-11-11-14-14-14-14---|
C|----9-9-9-9--5-5-5-5--5-5-5-5---9--9--9--9--9--9-12-12-12-12---|
G|----7-7-7-7--3-3-3-3-------------------------------------------|
D|---------------------------------------------------------------|


 “I AM THE ONE LASCIVIOUS…”
d|--------------------------------------------------------------------|
A|--------------------------------------------------------------------|
F|-------------5-5-5-5--12-12-12-12-12-12--11---10--------------------|
C|----2-2-2-2--5-5-5-5--12-12-12-12-12-12--11---10--------------------|
G|----2-2-2-2--3-3-3-3--10-10-10-10-10-10---9----8--------------------|
D|----0-0-0-0---------------------------------------------------------|


 “I AM THE ONE LASCIVIOUS…”
d|--------------------------------------------------------------------|
A|--------------------------------------------------------------------|
F|-------------5-5-5-5--12-12-12-12-12-12--11---10--------------------|
C|----2-2-2-2--5-5-5-5--12-12-12-12-12-12--11---10--------------------|
G|----2-2-2-2--3-3-3-3--10-10-10-10-10-10---9----8--------------------|
D|----0-0-0-0---------------------------------------------------------|


“WITH MAGIC POTION NIVEOUS...”
d|--------------------------------------------------------------------|
A|--------------------------------------------------------------------|
F|-------------5-5-5-5--12-12-12-12-12-12--11---10--------------------|
C|----2-2-2-2--5-5-5-5--12-12-12-12-12-12--11---10--------------------|
G|----2-2-2-2--3-3-3-3--10-10-10-10-10-10---9----8--------------------|
D|----0-0-0-0---------------------------------------------------------|


[Outro]

 GUITAR ONE
d|--------------------------------------------------------------------|
A|--------------------------------------------------------------------|
F|-------------5-5-8-8--12-12-12-12-12-12--11---10--------------------|
C|----2-2-2-2--5-5-8-8--12-12-12-12-12-12--11---10--------------------|
G|----2-2-2-2--3-3-6-6--10-10-10-10-10-10---9----8--------------------|
D|----0-0-0-0---------------------------------------------------------|

GUITAR ONE
d|--------------------------------------------------------------------|
A|--------------------------------------------------------------------|
F|-------------5-5-8-8--12-12-12-12-12-12--11---10----9---------------|
C|----2-2-2-2--5-5-8-8--12-12-12-12-12-12--11---10----9---------------|
G|----2-2-2-2--3-3-6-6--10-10-10-10-10-10---9----8----7---------------|
D|----0-0-0-0-----------------------------------------0---------------|

GUITAR TWO
d|--------------------------------------------------------------------|
A|--------------------------------------------------------------------|
F|---9-9--9-9--9-9---12-12--7-7--7-7--7-7--11--10---------------------|
C|---X-X--X-X--X-X----X--X--X-X--X-X--X-X--11--10---------------------|
G|---7-7--7-7--7-7---10-10--5-5--5-5--5-5---9---8---------------------|
D|--------------------------------------------------------------------|

GUITAR TWO
d|--------------------------------------------------------------------|
A|--------------------------------------------------------------------|
F|---9-9--9-9--9-9---12-12--7-7--7-7--7-7--11--10---------------------|
C|---X-X--X-X--X-X----X--X--X-X--X-X--X-X--11--10----2----------------|
G|---7-7--7-7--7-7---10-10--5-5--5-5--5-5---9---8----2----------------|
D|---------------------------------------------------0----------------|

************************************

| /  Slide up
| \  Slide down

************************************

            
            
Suggest correction
Creating personal tab
Creating personal tab
You can edit any tab online and save it as your Personal.

You can edit, replace or remove any tab part or add personal notes – all changes will be seen only by you.

Personal tabs can be accessed anytime from any device, even offline.
Learn more »
Give kudos to tab author, rate the tab!
1 2 3 4 5
comments
print report bad tab
guest
You may want to rate the tab now too:
select rating
Wanna post a correction for this tab? Suggest correction