Oops, an error
Loading. Please wait.

Majesty bass

version 1
version 1

Whole song

Interactive

by Ghost
3,663 views 24 this week
3 commentsread comments
1 2 3 4 5
x 4
add to favorites
×
Save as Personal and add changes to this tab that will be seen only by you. Learn more ›
×
You can save this tab as Personal to edit and correct it or add notes. All changes will be seen only by you. Learn more »
launch autoscroll
font size
0
reset
guitar tuner
backing track
0:00
0:00
edit
Autoscroll
slow
fast
+/-
esc
set tempo
stop
Intro 0:19
G|-----------------------------------------------------------------------|
D|-------------------------------10----------------------------------7---|
A|-------5-------0-3-5---7---8-----------5-----------------------5h7---5-|
D|-12\-0---0---0-------------------10\-0---0---0-3-4-5---5---7-----------|
   4 + 1 + 2 + 3 + 4 + 1 + 2 + 3 + 4 + 1 + 2 + 3 + 4 + 1 + 2 + 3 +   4 +

G|-------------------------------------------------------------------|
D|---------------------------10----------------------------------7---|
A|---5-------0-3-5---7---8-----------------------------------5h7---5-| 
D|-0---0---0-------------------10\-0-000---0-3-4-5---5---7-----------|
   1 + 2 + 3 + 4 + 1 + 2 + 3 + 4 + 1 + 2 + 3 + 4 + 1 + 2 + 3 +   4 +

Interlude 0:40
G|-----------------------------------------------------------------|
D|-----------------------------------------------------------------|
A|---------3h5-5-5---------5---5-5---------3h5-5-5---------5---5-5-|
D|-0---0-0---------0---0-0---------0---0-0---------0---0-0---------|
   1 + 2 + 3 + 4 + 1 + 2 + 3 + 4 + 1 + 2 + 3 + 4 + 1 + 2 + 3 + 4 +

Verse 0:45
G|-----------------------------------------------------------------|
D|-------------------------8---8-----------------------------------|
A|---------3h5-5-5-------------------------3h5-5-5---------5-------|
D|-0---0-0---------8---8-8---------0---0-0---------0---0-0---------|
   1 + 2 + 3 + 4 + 1 + 2 + 3 + 4 + 1 + 2 + 3 + 4 + 1 + 2 + 3 + 4 +

G|-----------------------------------------------------------------|
D|-----------------------------------------------------------------|
A|---------3h5-5---------------------------------------------------|
D|-0---------------0-------12\-----5---5-5-5---5-5-8---8-8-8---8---|
   1 + 2 + 3 + 4 + 1 + 2 + 3 + 4 + 1 + 2 + 3 + 4 + 1 + 2 + 3 + 4 +

0:55
G|-----------------------------------------------------------------|
D|-------------------------8-\-------------------------------------|
A|---------3h5-----------------------------3h5-5-5---------5-------|
D|-0---0-0---------8---8-8---------0---0-0---------0---0-0---------|
   1 + 2 + 3 + 4 + 1 + 2 + 3 + 4 + 1 + 2 + 3 + 4 + 1 + 2 + 3 + 4 +

G|-----------------------------------------------------------------|
D|-----------------------------------------------------------------|
A|---------3h5-5---------------------------------------------------|
D|-0---------------0-------12\-----5---5-5-5---5-5-8---8-8-8---8---|
   1 + 2 + 3 + 4 + 1 + 2 + 3 + 4 + 1 + 2 + 3 + 4 + 1 + 2 + 3 + 4 +

Interlude 1:05
G|---------------------------------7-7-7-7-7-5---5-----------------|
D|---------------/-7-7-7-7-7-7-7-7-------------7---7-5---5---------|
A|-----------------------------------------------------8---6-6-6-6-|
D|-0---0-0-0-------------------------------------------------------|
   1 + 2 + 3 + 4 + 1 + 2 + 3 + 4 + 1 + 2 + 3 + 4 + 1 + 2 + 3 + 4 +

G|-----------------------------------------------------------------|
D|-----------------------------------------------------------------|
A|---------3h5-5-5---------5---5-5---------3h5-5-5---------5---5-5-|
D|-0---0-0---------0---0-0---------0---0-0---------0---0-0---------|
   1 + 2 + 3 + 4 + 1 + 2 + 3 + 4 + 1 + 2 + 3 + 4 + 1 + 2 + 3 + 4 +

Verse 1:15
G|-----------------------------------------------------------------|
D|-------------------------8-\-------------------------------------|
A|---------5---5-5-------------------------3h5-5-5---------5-------|
D|-0---0-0---------8---8-8---------0---0-0---------0---0-0---------|
   1 + 2 + 3 + 4 + 1 + 2 + 3 + 4 + 1 + 2 + 3 + 4 + 1 + 2 + 3 + 4 +

G|-----------------------------------------------------------------|
D|-----------------------------------------------------------------|
A|---------5---5---------------------------------------------------|
D|-0---------------0-------12\-----5---5-5-5---5-5-8---8-8-8---8---|
   1 + 2 + 3 + 4 + 1 + 2 + 3 + 4 + 1 + 2 + 3 + 4 + 1 + 2 + 3 + 4 +

1:25
G|-----------------------------------------------------------------|
D|-------------------------8-\-------------------------------------|
A|---------5---5-5-------------------------3h5-5-5---------5-------|
D|-0---0-0---------8---8-8---------0---0-0---------0---0-0---------|
   1 + 2 + 3 + 4 + 1 + 2 + 3 + 4 + 1 + 2 + 3 + 4 + 1 + 2 + 3 + 4 +

G|-----------------------------------------------------------------|
D|-----------------------------------------------------------------|
A|---------3h5-5---------------------------------------------------|
D|-0---------------0-------12\-----5---5-5-5---5-5-8---8-8-8---8---|
   1 + 2 + 3 + 4 + 1 + 2 + 3 + 4 + 1 + 2 + 3 + 4 + 1 + 2 + 3 + 4 +

Pre Chorus 1:35
G|---------------------------------7-7-7-7-7-5---5---------------------------------|
D|---------------/-7-7-7-7-7-7-7-7-------------7---7-5---5-------------------------|
A|-----------------------------------------------------8---6-6-6-6-----------------|
D|-0---0-0-0---------------------------------------------------------------5-\-----|
   1 + 2 + 3 + 4 + 1 + 2 + 3 + 4 + 1 + 2 + 3 + 4 + 1 + 2 + 3 + 4 + 1 + 2 + 3 + 4 +

Chorus 1:42
G|--------------------------------------------/10------8-------\---|
D|-------0---/-7-------5-------------------------------------------|
A|-----------------------------5---------1-------------------------|
D|-5-------------------------------1-------------------------------|
   1 + 2 + 3 + 4 + 1 + 2 + 3 + 4 + 1 + 2 + 3 + 4 + 1 + 2 + 3 + 4 +

G|-----------------------------------------------------------------|
D|-----------------------------------------------------------------|
A|-------------------------------------3-------5-------------------|
D|-----1-------2-------3-------0-----------------------0---0-0-0---|
   1 + 2 + 3 + 4 + 1 + 2 + 3 + 4 + 1 + 2 + 3 + 4 + 1 + 2 + 3 + 4 +

G|--------------------------------------------/10------8-------\---|
D|-------0---/-7-------5-------------------------------------------|
A|-----------------------------5---------1-------------------------|
D|-5-------------------------------1-------------------------------|
   1 + 2 + 3 + 4 + 1 + 2 + 3 + 4 + 1 + 2 + 3 + 4 + 1 + 2 + 3 + 4 +

G|-----------------------------------------------------------------|
D|-----------------------------------------------------------------|
A|-------------------------------------3-------5-------------------|
D|-----1-------2-------3-------0---------------------------5-\-----|
   1 + 2 + 3 + 4 + 1 + 2 + 3 + 4 + 1 + 2 + 3 + 4 + 1 + 2 + 3 + 4 +

Re-Intro/Interlude 2:02
G|-----------------------------------------------------------------|
D|-----------------------------------------------------------------|
A|-----------------------------------------------------3---3-------|
D|-----------------------------0-------2-------3-------------3-2---|
   1 + 2 + 3 + 4 + 1 + 2 + 3 + 4 + 1 + 2 + 3 + 4 + 1 + 2 + 3 + 4 +

G|-----------------------------------------------------------------|
D|---------------------------------------------------------7-------|
A|-----------------------------------------------------5h7-----5---|
D|-0-------0-------0---3---4---5-------5-------7-------------------|
   1 + 2 + 3 + 4 + 1 + 2 + 3 + 4 + 1 + 2 + 3 + 4 + 1 + 2 + 3 + 4 +

G|-----------------------------------------------------------------|
D|-----------------------------------------------------10----------|
A|-----5---------------0---3---5-------7-------8-------------------|
D|-0-------0-------0---------------------------------------10-\----|
   1 + 2 + 3 + 4 + 1 + 2 + 3 + 4 + 1 + 2 + 3 + 4 + 1 + 2 + 3 + 4 +

G|-----------------------------------------------------------------|
D|-------------------------5h7-----------------------------7-------|
A|---------------------5h7-----------------------------5h7-----5---|
D|-0---0-0-12\-----0-----------5-------5-------7-------------------|
   1 + 2 + 3 + 4 + 1 + 2 + 3 + 4 + 1 + 2 + 3 + 4 + 1 + 2 + 3 + 4 +

Verse 2:22
G|-----------------------------------------------------------------|
D|-------------------------8---8-----------------------------------|
A|---------3h5-5-5-------------------------3h5-5-5---------5-------|
D|-0---0-0---------8---8-8---------0---0-0---------0---0-0---------|
   1 + 2 + 3 + 4 + 1 + 2 + 3 + 4 + 1 + 2 + 3 + 4 + 1 + 2 + 3 + 4 +

G|-----------------------------------------------------------------|
D|-----------------------------------------------------------------|
A|---------3h5-5---------------------------------------------------|
D|-0---0-0---------0---0-0-12\-----5---5-5-5---5-5-8---8-8-8---8---|
   1 + 2 + 3 + 4 + 1 + 2 + 3 + 4 + 1 + 2 + 3 + 4 + 1 + 2 + 3 + 4 +

2:32
G|-----------------------------------------------------------------|
D|-------------------------8---8-8---------------------------------|
A|---------5---5-5-------------------------3h5-5-5---------5-------|
D|-0---0-0---------8-8-8-8---------0---0-0---------0---0-0---------|
   1 + 2 + 3 + 4 + 1 + 2 + 3 + 4 + 1 + 2 + 3 + 4 + 1 + 2 + 3 + 4 +

G|-----------------------------------------------------------------|
D|-----------------------------------------------------------------|
A|---------3h5-5---------------------------------------------------|
D|-0---------------0-------12\-----5---5-5-5---5-5-8---8-8-8---8---|
   1 + 2 + 3 + 4 + 1 + 2 + 3 + 4 + 1 + 2 + 3 + 4 + 1 + 2 + 3 + 4 +

Pre Chorus
G|---------------------------------7-7-7-7-7-5---5-------------------------------------------------|
D|---------------/-7-7-7-7-7-7-7-7-------------7---7-5---5-----------------------------------------|
A|-----------------------------------------------------8---6-6-6-6---------------------------------|
D|-0---0-0-0-------------------------------------------------------0---0-0-0---0-0-0---0-0-5-\-----|
   1 + 2 + 3 + 4 + 1 + 2 + 3 + 4 + 1 + 2 + 3 + 4 + 1 + 2 + 3 + 4 + 1 + 2 + 3 + 4 + 1 + 2 + 3 + 4 +

Chorus 2:50
G|--------------------------------------------/10------8---8--------|
D|-------0---/-7-------5---------------------------------------8----|
A|-----------------------------5---------1-----------------------10-|
D|-5-------------------------------1--------------------------------|
   1 + 2 + 3 + 4 + 1 + 2 + 3 + 4 + 1 + 2 + 3 + 4 + 1 + 2 + 3 + 4 +

G|-----------------------------------------------------------------|
D|-----------------------------------------------------------------|
A|-6-----------------------------------3-------5-------------------|
D|-----1-------2-------3-------0-----------------------0---0-0-0---|
   1 + 2 + 3 + 4 + 1 + 2 + 3 + 4 + 1 + 2 + 3 + 4 + 1 + 2 + 3 + 4 +

G|--------------------------------------------/10------8---8--------|
D|-------0---/-7-------5---------------------------------------8----|
A|-----------------------------5---------1-----------------------10-|
D|-5-------------------------------1--------------------------------|
   1 + 2 + 3 + 4 + 1 + 2 + 3 + 4 + 1 + 2 + 3 + 4 + 1 + 2 + 3 + 4 +

G|-----------------------------------------------------------------|
D|-----------------------------------------------------------5---5-|
A|-6-----------------------------------3-------5-----------5---5---|
D|-----1-------2-------3-------0-----------------------------------|
   1 + 2 + 3 + 4 + 1 + 2 + 3 + 4 + 1 + 2 + 3 + 4 + 1 + 2 + 3 + 4 +

Interlude 3:10
G|-----------------------------------------------------------------|
D|---------------------------5---5---------------------------5---5-|
A|-------------------------5---5---------------------------5---5---|
D|-4-----4-4-4-3-------3-3---------1-----1-1-1-0-------0-0---------|
   1 + 2 + 3 + 4 + 1 + 2 + 3 + 4 + 1 + 2 + 3 + 4 + 1 + 2 + 3 + 4 +

G|-----------------------------------------------------------------------------------------|
D|---------------------------5---5-------------------------4-------3-------2---------5---5-|
A|-------------------------5---5---------------------------------------------------5---5---|
D|-4-----4-4-4-3-------3-3---------1-----1-1-1-0-------0-0---------------------------------|
   1 + 2 + 3 + 4 + 1 + 2 + 3 + 4 + 1 + 2 + 3 + 4 + 1 + 2 + 3 + 4 + 1 + 2 + 3 + 4 + 1 + 2 + 

Solo 3:22
G|------------------------------------------------------------------|
D|o---------------------------5---5---------------------------5---5-|
A|o-------------------------5---5---------------------------5---5---|
D|--4-----4-4-4-3-------3-3---------1-----1-1-1-0-------0-0---------|
    1 + 2 + 3 + 4 + 1 + 2 + 3 + 4 + 1 + 2 + 3 + 4 + 1 + 2 + 3 + 4 +

G|------------------------------------------------------------------------------------------|
D|---------------------------5---5-------------------------4-------3-------2---------5---5-o|
A|-------------------------5---5---------------------------------------------------5---5---o|
D|-4-----4-4-4-3-------3-3---------1-----1-1-1-0-------0-0----------------------------------|
   1 + 2 + 3 + 4 + 1 + 2 + 3 + 4 + 1 + 2 + 3 + 4 + 1 + 2 + 3 + 4 + 1 + 2 + 3 + 4 + 1 + 2 + 

Bridge 3:46
G|-----------------------------------------------------------------|
D|-----------------------------5---4-------------------------------|
A|-3-----------3-----5---5-6-------------5-----------------5---4---|
D|-------5-------------------------------------0-----0---0---------|
   1 + 2 + 3 + 4 + 1 + 2 + 3 + 4 + 1 + 2 + 3 + 4 + 1 + 2 + 3 + 4 +

G|-----------------------------------------------------------------|
D|-----------------------------5-5-4-------------------------------|
A|-3-----------3-----5-5-5-6-6-----------5-------------------------|
D|-------5-------------------------------------0-------------------|
   1 + 2 + 3 + 4 + 1 + 2 + 3 + 4 + 1 + 2 + 3 + 4 + 1 + 2 + 3 + 4 +

3:56
G|-----------------------------------------------------------------|
D|-----------------------------------------------------------------|
A|-1-1-1-1-1-1-1-1-1-1-1-1-1-1-1-1-0---0-0-0---0-----0---0---------|
D|---------------------------------------------------------3---2---|
   1 + 2 + 3 + 4 + 1 + 2 + 3 + 4 + 1 + 2 + 3 + 4 + 1 + 2 + 3 + 4 +

G|---------------------------------------------------------|
D|---------------------------------------------------------|
A|------------/5-----5---5-5---5---3-------5-------3-------|
D|-0-----0---0---------------------------------------------|
   1 + 2 + 3 + 4 + 1 + 2 + 3 + 4 + 1 + 2 + 3 + 4 + 1 + 2 + 

G|/7-----7----/7-----------5h7---------7---------------------------|
D|---------------------5h7-----5h7-5-----------8---8---------------|
A|-----------------------------------------6-----------8---8-------|
D|-------------------------------------------------------------10--|
   1 + 2 + 3 + 4 + 1 + 2 + 3 + 4 + 1 + 2 + 3 + 4 + 1 + 2 + 3 + 4 +

G|-----------------------------------------------------------------|
D|-----------------------------------------------------------------|
A|-----------------------------------------------------------------|
D|-0---------------------------/---12\---------------------12-\----|
   1 + 2 + 3 + 4 + 1 + 2 + 3 + 4 + 1 + 2 + 3 + 4 + 1 + 2 + 3 + 4 +

Chorus 4:16
G|--------------------------------------------/10------8---8---------|
D|-------0---/-7-------5-------------------------------------10-8----|
A|-----------------------------5---------1------------------------10-|
D|-5-------------------------------1---------------------------------|
   1 + 2 + 3 + 4 + 1 + 2 + 3 + 4 + 1 + 2 + 3 + 4 + 1 + 2 + 3 +  4 +

G|-----------------------------------------------------------------|
D|-----------------------------------------------------------------|
A|-8-6---------------------------------3-------5-------------------|
D|-----1-------2-------3-------0-----------------------0---0-0-0---|
   1 + 2 + 3 + 4 + 1 + 2 + 3 + 4 + 1 + 2 + 3 + 4 + 1 + 2 + 3 + 4 +

G|--------------------------------------------/10------8---8---------|
D|-------0---/-7-------5-------------------------------------10-8----|
A|-----------------------------5---------1------------------------10-|
D|-5-------------------------------1---------------------------------|
   1 + 2 + 3 + 4 + 1 + 2 + 3 + 4 + 1 + 2 + 3 + 4 + 1 + 2 + 3  + 4  +

G|---------------------------------------------------------5-7-----|
D|-----------------------------------------------------5-7-----5-7-|
A|-8-6---------------------------------3-------5-------------------|
D|-----1-------2-------3-------0-----------------------------------|
   1 + 2 + 3 + 4 + 1 + 2 + 3 + 4 + 1 + 2 + 3 + 4 + 1 + 2 + 3 + 4 +

4:36
G|--------------------------------------------/10------8---8---------|
D|-------0---/-7-------5-------------------------------------10-8----|
A|-----------------------------5---------1------------------------10-|
D|-5-------------------------------1---------------------------------|
   1 + 2 + 3 + 4 + 1 + 2 + 3 + 4 + 1 + 2 + 3 + 4 + 1 + 2 + 3 +  4 +

G|-------------------------------------------------8------------------|
D|---------------------------------------------------10-8-------------|
A|-8-6---------------------------------3-------5----------10-8-6------|
D|-----1-------2-------3-------0---------------------------------10-8-|
   1 + 2 + 3 + 4 + 1 + 2 + 3 + 4 + 1 + 2 + 3 + 4 + 1 +  2 +  3 + 4  +

G|--------------------------------------------/10------8---8---------|
D|-------0---/-7-------5-------------------------------------10-8----|
A|-----------------------------5---------1------------------------10-|
D|-5-------------------------------1---------------------------------|
   1 + 2 + 3 + 4 + 1 + 2 + 3 + 4 + 1 + 2 + 3 + 4 + 1 + 2 + 3 +  4 +

G|-----------------------------------------------------------------|
D|-----------------------------------------------------------------|
A|-8-6---------------------------------3-------5-------------------|
D|-----1-------2-------3-------0-----------------------------------|
   1 + 2 + 3 + 4 + 1 + 2 + 3 + 4 + 1 + 2 + 3 + 4 + 1 + 2 + 3 + 4 +

Outro 4:56
G|-----------------------------------------------------------------|
D|-----------------------------------------------------------------|
A|-----------------------------------------------------8---8-8-8---|
D|-5---------------------------5-------7-------8-------------------|
   1 + 2 + 3 + 4 + 1 + 2 + 3 + 4 + 1 + 2 + 3 + 4 + 1 + 2 + 3 + 4 +

G|-----------------------------------------------------------------|
D|-5-----7-8-----------5---5-7-8-------7-------5-------------------|
A|-----------------------8-----------------------------5-----------|
D|-------------------------------------------------------------8---|
   1 + 2 + 3 + 4 + 1 + 2 + 3 + 4 + 1 + 2 + 3 + 4 + 1 + 2 + 3 + 4 +

G|-----------------------------------------------------------------|
D|--(Fermata)------------------------------------------------------|
A|-----^-----------------------------------------------------------|
D|-----7---------------------------5-\-----------------------------|
   1 + 2 + 3 + 4 + 1 + 2 + 3 + 4 + 1 + 2 + 3 + 4 + 1 + 2 + 3 + 4 +
Tabbed by Dave Vucko

            
            
Suggest correction
Creating personal tab
Creating personal tab
You can edit any tab online and save it as your Personal.

You can edit, replace or remove any tab part or add personal notes – all changes will be seen only by you.

Personal tabs can be accessed anytime from any device, even offline.
Learn more »
comments
print report bad tab
3 comments total.
+1 reply
awsedrftg44 134 Aug 09, 2015 01:36 PM

Solid tab dude, made it pretty quickly too!

+1 reply
Tallica94 63 Aug 10, 2015 10:53 AM

Great tab mate!

0 reply
6METAL6BASSIST6 [tm] 22,935 Aug 10, 2015 12:33 PM

I figured it it would be up soon.

guest
You may want to rate the tab now too:
select rating
Wanna post a correction for this tab? Suggest correction