Oops, an error
Loading. Please wait.

Majesty tab

version 1
version 1

Whole song

Interactive

by Ghost
6,484 views 126 this week
1 commentread comment
1 2 3 4 5
x 6
add to favorites
×
Save as Personal and add changes to this tab that will be seen only by you. Learn more ›
×
You can save this tab as Personal to edit and correct it or add notes. All changes will be seen only by you. Learn more »
launch autoscroll
font size
0
reset
how to read this tab
guitar tuner
backing track
0:00
0:00
edit
Autoscroll
slow
fast
+/-
esc
set tempo
stop
[Intro]

GUITAR ONE, PLAY FOUR TIMES
d||----------------------------------------------------------------------||
A||:--------------------------------------------------------------------:||
F||----------------------------------------------------7-6--4------4-----||
C||---2/-9---9^7-----7^9-7----5-5^7------9----9^7------7-7--4--0^2-------||
G||:--2/-7---7-------7---7-=--5-5--------7----7----=-----------------0--:||
D||---0-----------0--------0-----------0-----------0---------------------||

INTRO LEAD, GUITAR TWO, COME IN ON THIRD TIME
d|-------------------------------------------------------------------------------------19----|
A|-------12--------------12------------------------------12--------12-14^b14-12--12/17----17-|
F|-12-14--------11-12-14-----14--12--11--12^11-----12-14-----12-14---------------------------|
C|-----------14--------------------------------14--------------------------------------------|
G|-------------------------------------------------------------------------------------------|
D|-------------------------------------------------------------------------------------------|


[Verse]

d|--------------------------------------------------------------------------------------|
A|--------------------------------------------------------------------------------------|
F|--------------------------------------------------------------------------------------|
C|--pm--------------------------------------------------------------------============--|
G|--====================================================================--3-3-3--3-3-3--|
D|--0-0-0--0-0-0--0-0-0--0-0-0--0-0-0--0-0-0--0-0-0--0-0-0--0-0-0--0-0-0----------------|


d|---------------------------------------------------------|
A|---------------------------------------------------------|
F|------------------------------------------5-----6-----7--|
C|-----------------------------7------------5-----7-----5--|
G|--===================--0^7^8----=====-5/7-7-/7--7-/7--7--|
D|--0-0-0--0-0-0--0-0-0-----------0-0-0-0---0--0--0--0--0--|


d|------------------------------------------------------------------------------|
A|------------------------------------------------------------------------------|
F|---------------------------------------------------------------5-----6-----7--|
C|--pm----------===========-------------------------7------------5-----7-----5--|
G|--===========-3-3-3-3-3-3-=================-0^7^8----=====-5/7-7-/7--7-/7--7--|
D|--0-0-0-0-0-0-------------0-0-0-0-0-0-0-0-0----------0-0-0-0---0--0--0--0--0--|


d|-----------------------------------------------|
A|-----------------------------------------------|
F|-----------------------------------------------|
C|--pm----9--7-------------12--------7--=======--|
G|--=====-7--5--7--0^12^13-----0^7^8----3-3-3-3--|
D|--0-0-0-------5-----------------------1-1-1-1--|


d|--------------------------------------------------------------------------------------|
A|--------------------------------------------------------------------------------------|
F|--------------------------------------------------------------------------------------|
C|--pm--------------------------------------------------------------------============--|
G|--====================================================================--3-3-3--3-3-3--|
D|--0-0-0--0-0-0--0-0-0--0-0-0--0-0-0--0-0-0--0-0-0--0-0-0--0-0-0--0-0-0----------------|


d|---------------------------------------------------------|
A|---------------------------------------------------------|
F|------------------------------------------5-----6-----7--|
C|-----------------------------7------------5-----7-----5--|
G|--===================--0^7^8----=====-5/7-7-/7--7-/7--7--|
D|--0-0-0--0-0-0--0-0-0-----------0-0-0-0---0--0--0--0--0--|


d|------------------------------------------------------------------------------|
A|------------------------------------------------------------------------------|
F|---------------------------------------------------------------5-----6-----7--|
C|--pm----------===========-------------------------7------------5-----7-----5--|
G|--===========-3-3-3-3-3-3-=================-0^7^8----=====-5/7-7-/7--7-/7--7--|
D|--0-0-0-0-0-0-------------0-0-0-0-0-0-0-0-0----------0-0-0-0---0--0--0--0--0--|


d|-----------------------------------------------|
A|-----------------------------------------------|
F|-----------------------------------------------|
C|--pm----9--7-------------12--------7--=======--|
G|--=====-7--5--7--0^12^13-----0^7^8----3-3-3-3--|
D|--0-0-0-------5-----------------------1-1-1-1--|


[Chorus]

d|----------------------------------------------|
A|----------------------------------------------|
F|--------7-6--------------------------PM-------|
C|------9-9-7--------9-7----------7-9--=======--|
G|----7-7-------2-3-10-8--3-4-5-2-5-7--2-2-2-2--|
D|----5---------0-1-------1-2-3-0------0-0-0-0--|


d|----------------------------------------------|
A|----------------------------------------------|
F|--------7-6-----------------------------------|
C|------9-9-7--------9-7----------7-9--REST-----|
G|----7-7-------2-3-10-8--3-4-5-2-5-7-----------|
D|----5---------0-1-------1-2-3-0---------------|

GUTIAR ONE, MIDDLE LEAD
d|-------------------------------------------------------------------------------------19----|
A|-------12--------------12------------------------------12--------12-14^b14-12--12/17----17-|
F|-12-14--------11-12-14-----14--12--11--12^11-----12-14-----12-14---------------------------|
C|-----------14--------------------------------14--------------------------------------------|
G|-------------------------------------------------------------------------------------------|
D|-------------------------------------------------------------------------------------------|

GUTIAR ONE, MIDDLE LEAD
d|-------------------------------------------------------------------------------------19----|
A|-------12--------------12------------------------------12--------12-14^b14-12--12/17----17-|
F|-12-14--------11-12-14-----14--12--11--12^11-----12-14-----12-14---------------------------|
C|-----------14--------------------------------14--------------------------------------------|
G|-------------------------------------------------------------------------------------------|
D|-------------------------------------------------------------------------------------------|

GUITAR TWO, UNDER MIDDLE LEAD
d|-------------------------------------------------------------------------------------------|
A|-------------------------------------------------------------------------------------------|
F|-------7-7-7-7\------------6^7-6------------------------------7------------6^7-6-----------|
C|-2-4-5-x-x-x-x\---9--9-7---7---7-9------9------9--9-7---9-7-5-x----9-9-7---7---7-9-----9---|
G|-2-4-5-5-5-5-5\---7--7-7---------9--5/7---7----7--7-7---7-7-7-5----7-7-7---------9-5/7---7-|
D|-0-2-3----------0--------0-------------------0--------0----------0-------0-----------------|


[Verse]

d|------------------------------------------------------------------------------|
A|------------------------------------------------------------------------------|
F|---------------------------------------------------------------5-----6-----7--|
C|--pm----------===========-------------------------7------------5-----7-----5--|
G|--===========-3-3-3-3-3-3-=================-0^7^8----=====-5/7-7-/7--7-/7--7--|
D|--0-0-0-0-0-0-------------0-0-0-0-0-0-0-0-0----------0-0-0-0---0--0--0--0--0--|


d|------------------------------------------------------------------------------|
A|------------------------------------------------------------------------------|
F|---------------------------------------------------------------5-----6-----7--|
C|--pm----------===========-------------------------7------------5-----7-----5--|
G|--===========-3-3-3-3-3-3-=================-0^7^8----=====-5/7-7-/7--7-/7--7--|
D|--0-0-0-0-0-0-------------0-0-0-0-0-0-0-0-0----------0-0-0-0---0--0--0--0--0--|


d|----------------------------------------------------------------------------|
A|----------------------------------------------------------------------------|
F|----------------------------------------------------------------------------|
C|--pm----9--7-------------12--------7--=======--pm-------------------qr------|
G|--=====-7--5--7--0^12^13-----0^7^8----3-3-3-3--===================----------|
D|--0-0-0-------5-----------------------1-1-1-1--0-0-0-0-0-0-0-0-0-0----------|


[Chorus]

d|----------------------------------------------|
A|----------------------------------------------|
F|--------7-6--------------------------PM-------|
C|------9-9-7--------9-7----------7-9--=======--|
G|----7-7-------2-3-10-8--3-4-5-2-5-7--2-2-2-2--|
D|----5---------0-1-------1-2-3-0------0-0-0-0--|


d|----------------------------------------------|
A|----------------------------------------------|
F|--------7-6----------------------------4------|
C|------9-9-7--------9-7----------7-9--3---4\---|
G|----7-7-------2-3-10-8--3-4-5-2-5-7-----------|
D|----5---------0-1-------1-2-3-0---------------|


[Bridge]

PLAY THREE TIMES
d||-------------------------------------------------------------------------------------------|
A||:----pm------------------------------------------------------------------------------------|
F||-----=====---=====----4------=====---=====---4-------=====---=====---4------=====---=====--|
C||---6-x-x-x-5-x-x-x--3---3\-3-x-x-x-2-x-x-x-2---2\--6-x-x-x-5-x-x-x-3---3\-3-x-x-x-2-x-x-x--|
G||:--6-x-x-x-5-x-x-x---------3-x-x-x-2-x-x-x---------6-x-x-x-5-x-x-x--------3-x-x-x-2-x-x-x--|
D||---4-x-x-x-3-x-x-x---------1-x-x-x-0-x-x-x---------4-x-x-x-3-x-x-x--------1-x-x-x-0-x-x-x--|


d|----------------------------------------||
A|---------------------------------------:||
F|----------------------------------------||
C|-----10---------9--------8-------7------||
G|--11----11^0-10---10^0-9---9^0-8---8\--:||
D|----------------------------------------||


d|--------------------------------------------------------------------------------------------|
A|--------------------------------------------------------------------------------------------|
F|----7---7---4------------7---7---4--------5---4---------------------------------------------|
C|----7-7-7---2-2----9-8---7-7-7---2-2------5---4---------------------------------------------|
G|----5-5-5-----2-2--7-6---5-5-5-----2-2----3---2----2-2--5^7-7-7-7--5-7-5-7-7-7-7-7-7--------|
D|------5---------0----------5---------0----3---2----0-0--0-0-0-0-0--------0-0-0-0-0-0--------|


d|---------------|
A|---------------|
F|------9--------|
C|-7-10---9-2----|
G|----------2----|
D|----------0----|

LEAD PART OVER BRIDGE
d|--------------------------------------------------------------------------------------------|
A|---------------------------------17-------17-------17-------17-------17\--------------------|
F|------------------------------------16-------16-------16-------16----------16^b16-14-13^b13-|
C|--9^b-9-7-6^b6-----9^b-9-7-6^b6--------14-------14-------14-------14------------------------|
G|---------------7----------------------------------------------------------------------------|
D|--------------------------------------------------------------------------------------------|

LEAD PART OVER BRIDGE
d|--------------------------------------------------------------------------------------------|
A|-------------------------17------17-------17-------17-------17\-----------------------------|
F|------16^b16-14--13^b13----16-------16-------16-------16------------------------------------|
C|-14---------------------------14-------14-------14-------14---------------------------------|
G|--------------------------------------------------------------------------------------------|
D|--------------------------------------------------------------------------------------------|

LEAD PART OVER BRIDGE
d|-------1------5-/4-0------------1------5/4-0-- 12^7^0--12^7^0--12^7^0--12^7^0-12------------|
A|--3------3-----------0--5-4-3-----3---------------------------------------------------------|
F|----2------2------------4-3-2-2-----2-------------------------------------------------------|
C|--------------------------------------------------------------------------------------------|
G|--------------------------------------------------------------------------------------------|
D|--------------------------------------------------------------------------------------------|

LEAD PART OVER BRIDGE
d|--12^8^0--12^8^0--12^8^0--12^8^0-12----------------------------------------------------------|
A|---------------------------------------------------------------------------------------------|
F|-------------------------------------13^9^0-13^9^0-13^9^0-13^9^0-13^9^0-13^9^0-13^9^0-13^9^0-|
C|---------------------------------------------------------------------------------------------|
G|---------------------------------------------------------------------------------------------|
D|---------------------------------------------------------------------------------------------|

LEAD PART OVER BRIDGE
d|----------------------------------------------------------------------------8-12------------|
A|--------13^10^9-13^10^9-13^10^9-13^10^9-13^10^9-13^10^9-13^10^9-13^10^9--10------12-9^b9----|
F|-7-9-10-------------------------------------------------------------------------------------|
C|--------------------------------------------------------------------------------------------|
G|--------------------------------------------------------------------------------------------|
D|--------------------------------------------------------------------------------------------|


[Chorus]

d|----------------------------------------------|
A|----------------------------------------------|
F|--------7-6--------------------------PM-------|
C|------9-9-7--------9-7----------7-9--=======--|
G|----7-7-------2-3-10-8--3-4-5-2-5-7--2-2-2-2--|
D|----5---------0-1-------1-2-3-0------0-0-0-0--|


d|---------------------------------------------------|
A|---------------------------------------------------|
F|--------7-6--------------------------PM------------|
C|------9-9-7--------9-7----------7-9--===========---|
G|----7-7-------2-3-10-8--3-4-5-2-5-7--x-x-x-x-x-x---|
D|----5---------0-1-------1-2-3-0------x-x-x-x-x-x---|


d|----------------------------------------------|
A|----------------------------------------------|
F|--------7-6-----------------------------------|
C|------9-9-7--------9-7----------7-9-----------|
G|----7-7-------2-3-10-8--3-4-5-2-5-7-----------|
D|----5---------0-1-------1-2-3-0---------------|


d|----------------------------------------------|
A|----------------------------------------------|
F|--------7-6-----------------------------------|
C|------9-9-7--------9-7----------7-9-----------|
G|----7-7-------2-3-10-8--3-4-5-2-5-7-----------|
D|----5---------0-1-------1-2-3-0---------------|


[Outro]

d|--------12--------------12----------------------------12---------12-14^b14-12--------------|
A|--13-15--------12-13-15----15-13--12^13^12------13-15------13-15--------------13-12^b12----|
F|------------14-----------------------------14-------------------------------------------14-|
C|-------------------------------------------------------------------------------------------|
G|-------------------------------------------------------------------------------------------|
D|-------------------------------------------------------------------------------------------|


d|--------------------------------------------------------------------------------------------|
A|--------------------------------------------------------------------------------------------|
F|--------------------------------------------------------------------------------------------|
C|---7\---------------------------------------------------------------------------------------|
G|---7\---------------------------------------------------------------------------------------|
D|---5\---------------------------------------------------------------------------------------|


Side note: this has been the hardest song i have ever tried to figure out, in my life.
So... there might be some mistakes, if so.... sorry 'bout that mate. praise Ghost and Papa Lucifer.

************************************

|: = repeat sign
:| = repeat sign
^ = hammer-on/pull-off
/ = slide up
\ = slide down
() = harmonics
x = string mute
^b = bend
qr = Quick Rest
T = tapping

pm
== = Palm Mute

************************************

            
            
Suggest correction
Creating personal tab
Creating personal tab
You can edit any tab online and save it as your Personal.

You can edit, replace or remove any tab part or add personal notes – all changes will be seen only by you.

Personal tabs can be accessed anytime from any device, even offline.
Learn more »
comments
print report bad tab
1 comment total.
0 reply
bodom176 228 Mar 14, 2017 04:38 PM

Excellent tab (!), but I play intro this way. I think it sounds better...well, at least for me. (Had to squeeze tab a bit so hope it's not gonna be messy, sorry in advance if I fail.)

GUITAR ONE, PLAY FOUR TIME
d||------------------------------------------------------------------||
A||:----------------------------------------------------------------:||
F||-----------------------------------------------------7-6-4-----4--||
C||--2/-9--(7)^9-7--(7)^9--7--(4)^5--4~--2/-9--(7)^9-7--7-7-4--0^2---||
G||:-2/-7--(7)---7--(7)----7--(5)----5~--2/-7--(7)-7---------------0:||
D||--0------------0----------0-----------0------------0--------------||

The notes in ( ) are grace notes because I don't know how to tab 'em and ~ is for little vibrato (duh!)

Great work, 5/5!

guest
You may want to rate the tab now too:
select rating
Wanna post a correction for this tab? Suggest correction