Oops, an error
Loading. Please wait.

Monstrance Clock bass

version 1
version 1

Whole song

Interactive

by Ghost
14,128 views 33 this week
2 commentsread comments
1 2 3 4 5
x 7
add to favorites
×
Save as Personal and add changes to this tab that will be seen only by you. Learn more ›
×
You can save this tab as Personal to edit and correct it or add notes. All changes will be seen only by you. Learn more »
launch autoscroll
font size
0
reset
guitar tuner
edit
Autoscroll
slow
fast
+/-
esc
set tempo
stop
0:17
G|---------------------------5-7-\---------------------------5-7-\-|
D|-----------------------5-7-----------------------------5-7-------|
A|-------3-5-----------------------------3-5-----------------------|
D|-0---------------0---------------0---------------0---------------|
   1 + 2 + 3 + 4 + 1 + 2 + 3 + 4 + 1 + 2 + 3 + 4 + 1 + 2 + 3 + 4 +

G|-----------------------------------------------------------5-7-\-|
D|---------------------3-------5-----------------------------------|
A|-------3-5---5---1-----1-3---------------------------------------|
D|-0-------------------------------5-----3-5-------5-----3-5-------|
   1 + 2 + 3 + 4 + 1 + 2 + 3 + 4 + 1 + 2 + 3 + 4 + 1 + 2 + 3 + 4 +

0:35
G|-----------------------------------------------------------------|
D|-----------------------------------------------------------------|
A|-----------------4-----4-4h5-4-------------------4-----4-4h5-4---|
D|-5-----3-5---5-\-----------------5-----3-5---5-\-----------------|
   1 + 2 + 3 + 4 + 1 + 2 + 3 + 4 + 1 + 2 + 3 + 4 + 1 + 2 + 3 + 4 +

G|---------------5-------5-----5-7-------7-------5-----7-----------|
D|-----3-5-----7---8---7-----------5---8-------8---5-----8-5-------|
A|---------6---------------8---------------8-----------------------|
D|-5-----------------------------------------------------------5-\-|
   1 + 2 + 3 + 4 + 1 + 2 + 3 + 4 + 1 + 2 + 3 + 4 + 1 + 2 + 3 + 4 +

G|-----------------------------------------------------------------|
D|-----------------------------------------------------------------|
A|-----------------4-----4-4h5-4-------------------4-----4-4h5-4---|
D|-5-----3-5---5-\-----------------5-----3-5---5-\-----------------|
   1 + 2 + 3 + 4 + 1 + 2 + 3 + 4 + 1 + 2 + 3 + 4 + 1 + 2 + 3 + 4 +

G|---------------5-------5-----5-7-------7-------5-----7-----------|
D|-----3-5-----7---8---7-----------5---8-------8---5-----8-5-------|
A|---------6---------------8---------------8-----------------------|
D|-5---------------------------------------------------------------|
   1 + 2 + 3 + 4 + 1 + 2 + 3 + 4 + 1 + 2 + 3 + 4 + 1 + 2 + 3 + 4 +

1:11
G|-------------------------------------------------------------------|
D|o-----------------------------------------------------------------o|
A|o-----------------3-3-3-3-1-1---------------------1-1-1-1---------o|x4
D|--1-1-1-1-5-5-5-5-------------3-3-1-1-1-1-5-5-5-5---------3-3-3-3--|
    1 + 2 + 3 + 4 + 1 + 2 + 3 + 4 + 1 + 2 + 3 + 4 + 1 + 2 + 3 + 4 +

1:48
G|---------------------------5-7-\---------------------------5-7-\-|
D|-----------------------5-7-----------------------------5-7-------|
A|-------3-5-----------------------------3-5-----------------------|
D|-0-0-------------0-0-------------0-0-------------0-0-------------|
   1 + 2 + 3 + 4 + 1 + 2 + 3 + 4 + 1 + 2 + 3 + 4 + 1 + 2 + 3 + 4 +

G|-----------------------------------------------------------5-7-\-|
D|---------------------3-------5---5-5---3-5-------------3-5-------|
A|-------3-5---5---1-----1-3---------------------------------------|
D|-0-0---------------------------------------------5-5-------------|
   1 + 2 + 3 + 4 + 1 + 2 + 3 + 4 + 1 + 2 + 3 + 4 + 1 + 2 + 3 + 4 +

2:06
G|-----------------------------------------------------------------|
D|-----------------------------------------------------------------|
A|-----------------4-----4-4h5-4-------------------4-----4-4h5-4---|
D|-5-----3-5---5-\-----------------5-----3-5---5-\-----------------|
   1 + 2 + 3 + 4 + 1 + 2 + 3 + 4 + 1 + 2 + 3 + 4 + 1 + 2 + 3 + 4 +

G|-----------------------------------------------------------------|
D|-----------------------------3-----------------------------------|
A|-------5-6-----8-----6-8---------------5-----3-5-----5---6---5---|
D|-5---8-----------8-------3-------5---8---3-------5-----5---------|
   1 + 2 + 3 + 4 + 1 + 2 + 3 + 4 + 1 + 2 + 3 + 4 + 1 + 2 + 3 + 4 +

2:25
G|-----------------------------------------------------------------|
D|-----------------------------------------------------------------|
A|-----------------4-----4-4h5-4-------------------4-----4-4h5-4---|
D|-5-----3-5---5-\-----------------5-----3-5---5-\-----------------|
   1 + 2 + 3 + 4 + 1 + 2 + 3 + 4 + 1 + 2 + 3 + 4 + 1 + 2 + 3 + 4 +

G|---------------------------------------7-------5-----------------|
D|-----------------------------3-3-5---8-------8---5---5-----------|
A|-------5-6---6-8-------8-----------------8-----------------------|
D|-5---8-----------8---8---3---------------------------------------|
   1 + 2 + 3 + 4 + 1 + 2 + 3 + 4 + 1 + 2 + 3 + 4 + 1 + 2 + 3 + 4 +

Rest

3:01
G|------------------5-5-5-5------------------------------------------|
D|o---------5-5-5-5---------8-8-------------5-5-5-5-8-8-8-8---------o|
A|o-6-6-6-6---------------------8-8-6-6-6-6-----------------8-8-8-8-o|
D|-------------------------------------------------------------------|
    1 + 2 + 3 + 4 + 1 + 2 + 3 + 4 + 1 + 2 + 3 + 4 + 1 + 2 + 3 + 4 +

3:19
G|-------------------------------------------------------------------|
D|o-----------------------------------------------------------------o|
A|o-----------------3-3-3-3-1-1---------------------1-1-1-1---------o|x7
D|--1-1-1-1-5-5-5-5-------------3-3-1-1-1-1-5-5-5-5---------3-3-3-3--|
    1 + 2 + 3 + 4 + 1 + 2 + 3 + 4 + 1 + 2 + 3 + 4 + 1 + 2 + 3 + 4 +

G|-----------------------------------------------------------------|
D|-----------------------------------------------------------------|
A|-----------------3-3-3-3-1-1---------------------1-1-1-1---------|
D|-1-1-1-1-5-5-5-5-------------3-3-1-1-1-1-5-5-5-5---------3-3-----|
   1 + 2 + 3 + 4 + 1 + 2 + 3 + 4 + 1 + 2 + 3 + 4 + 1 + 2 + 3 + 4 +

4:32 very faint
G|------------------5------------------------------------------------|
D|o---------5-------------------------------5-------8---------------o|
A|o-6-----------------------8-------6-----------------------8-------o|
D|-------------------------------------------------------------------| 
    1 + 2 + 3 + 4 + 1 + 2 + 3 + 4 + 1 + 2 + 3 + 4 + 1 + 2 + 3 + 4 +

4:51 repeat till end
G|-------------------------------------------------------------------|
D|o-----------------------------------------------------------------o|
A|o-----------------3-------------------------------1---------------o|
D|--1-------5---------------3-------1-------5---------------3--------| 
    1 + 2 + 3 + 4 + 1 + 2 + 3 + 4 + 1 + 2 + 3 + 4 + 1 + 2 + 3 + 4 +
Tabbed by Dave Vucko

            
            
Suggest correction
Creating personal tab
Creating personal tab
You can edit any tab online and save it as your Personal.

You can edit, replace or remove any tab part or add personal notes – all changes will be seen only by you.

Personal tabs can be accessed anytime from any device, even offline.
Learn more »
comments
print report bad tab
2 comments total.
+2 reply
6METAL6BASSIST6 [tm] 23,795 May 02, 2014 01:35 PM

I think below the 0:35 mark, the second to last 7 should be a 5, same where it repeats.

Then below the 2:25 mark where it goes

G|--7-------7-----------------| G|--7-------5-----------------|
D|8-------8---5---5-----------|should be D|8-------8---5---5-----------|
A|----8-----------------------| A|----8-----------------------|
D|----------------------------| D|----------------------------|
2 + 3 + 4 + 1 + 2 + 3 + 4 + 2 + 3 + 4 + 1 + 2 + 3 + 4 +

I can't be sure cause the notes are close and it's hard to tell but after listening to it over and over again it kind of sounds like it.

+2 reply
Teh D Bot 11,992 May 02, 2014 05:47 PM

Thank you for telling me about this, i've now fixed it.

guest
You may want to rate the tab now too:
select rating
Wanna post a correction for this tab? Suggest correction