Oops, an error
Loading. Please wait.

Mummy Dust bass

version 1
version 1

Whole song

Interactive

by Ghost
2,375 views 6 this week
no commentswrite comment
1 2 3 4 5
2 more votes to show rating
add to favorites
×
Save as Personal and add changes to this tab that will be seen only by you. Learn more ›
×
You can save this tab as Personal to edit and correct it or add notes. All changes will be seen only by you. Learn more »
launch autoscroll
font size
0
reset
guitar tuner
edit
Autoscroll
slow
fast
+/-
esc
set tempo
stop
Played with a Low B string see 0:51, or in Drop C tuning
Some notes I am unsure on, but the overall sound is there

G|-----------------------------------------------------------------|
D|-----------------------------------------------------------------|
A|-----------------------------------------------------------------|
D|-000-----0-------000-----0-------000-----0-------000-----0-------|
B|-----------------------------------------------------------------|
   1 + 2 + 3 + 4 + 1 + 2 + 3 + 4 + 1 + 2 + 3 + 4 + 1 + 2 + 3 + 4 +

G|-----------------------------------------------------------------|
D|-----------------------------------------------------------------|
A|-----------------------------------------------------------------|
D|-000-----0-------000-----0-------000-----0-------0-0-0---7-6-3-1-|
   1 + 2 + 3 + 4 + 1 + 2 + 3 + 4 + 1 + 2 + 3 + 4 + 1 + 2 + 3 + 4 +

0:13
G|-------------------------------------------------------------------|
D|o-----------------------------------------------------------------o|
A|o-------------------------3-5---5---------------------------------o|
D|----0-0-0-0-0-0-0-0-0-0-0-----0-----0-0-0-0-0-0-0-0-0-0-0-7-6-3-1--|
    1 + 2 + 3 + 4 + 1 + 2 + 3 + 4 + 1 + 2 + 3 + 4 + 1 + 2 + 3 + 4 +

G|-----------------------------------------------------------------|
D|-----------------------------------------------------------------|
A|-------------5-5-5-----------5-5-5-----------5-5-5---------------|
D|---0-0-0-0-0-------0-0-0-0-0-------0-0-0-0-0-------0-0-0-7-6-3-1-|
   1 + 2 + 3 + 4 + 1 + 2 + 3 + 4 + 1 + 2 + 3 + 4 + 1 + 2 + 3 + 4 +

G|-----------------------------------------------------------------|
D|-----------------------------------------------------------------|
A|-------------5-5-5-----------5-5-5-----------5-5-5---------------|
D|---0-0-0-0-0-------0-0-0-0-0-------0-0-0-0-0-------0-0-0-3-4-7-6-|
   1 + 2 + 3 + 4 + 1 + 2 + 3 + 4 + 1 + 2 + 3 + 4 + 1 + 2 + 3 + 4 +

G|------------------------------------|
D|------------------------------------|
A|------------------------------------|
D|-----6---6-/-/-18---18-18---3-4-7---|
   1 + 2 + 3 + 4 +  1 +  2  + 3 + 4 + 

Verse 0:39
G|-------------------------------------------------------------------|
D|o-------------------------------------------------4-5-6-----------o|
A|o-----------------------------------------------------------------o|
D|--4-6-6-6-4-6-6-6-4-6-6-6-3-4-7---4-6-6-6-4-6-6-6---------3-4-7----|
    1 + 2 + 3 + 4 + 1 + 2 + 3 + 4 + 1 + 2 + 3 + 4 + 1 + 2 + 3 + 4 +

0:51
G|-----------------------------------------------------------------------------------------|
D|---------------------------------------------------------6---------------5---------------|
A|---------2--------------(3)--------------------------------------------------------------|
D|-6---------------4-----------------------------------------------------------------------|
B|-------------------------1---------------------------------------------------------------|
   1 + 2 + 3 + 4 + 1 + 2 + 1 + 2 + 3 + 4 + 1 + 2 + 3 + 4 + 1 + 2 + 3 + 4 + 1 + 2 + 3 + 4 +

G|-----------------------------------------------------------------|
D|-------------------------------/-6-/-6---------6-----------------|
A|(3)--------------------------------------4-6-3---4---------------|
D|---------------------------------------------------------7-6-3-1-|
B|-1---------------------------------------------------------------|
   1 + 2 + 3 + 4 + 1 + 2 + 3 + 4 + 1 + 2 + 3 + 4 + 1 + 2 + 3 + 4 +

Interlude 1:05
G|-----------------------------------------------------------------|
D|-----------------------------------------------------------------|
A|-------------------------3-5---5---------------------------------|
D|---0-0-0-0-0-0-0-0-0-0-0-----0-----0-0-0-0-0-0-0-0-0-0-0-7-6-3-1-|
   1 + 2 + 3 + 4 + 1 + 2 + 3 + 4 + 1 + 2 + 3 + 4 + 1 + 2 + 3 + 4 +

G|-----------------------------------------------------------------|
D|-----------------------------------------------------------------|
A|-------------------------3-5---5---------------------------------|
D|---0-0-0-0-0-0-0-0-0-0-0-----0-----0-0-0-0-0-0-0-0-0-0-0-3-4-7-6-|
   1 + 2 + 3 + 4 + 1 + 2 + 3 + 4 + 1 + 2 + 3 + 4 + 1 + 2 + 3 + 4 +

G|------------------------------------|
D|------------------------------------|
A|------------------------------------|
D|-----6---6-/-/-18---18-18---3-4-7---|
   1 + 2 + 3 + 4 +  1 +  2  + 3 + 4 + 

Verse 1:21
G|-------------------------------------------------------------------|
D|o-------------------------------------------------4-5-6-----------o|
A|o-----------------------------------------------------------------o|
D|--4-6-6-6-4-6-6-6-4-6-6-6-3-4-7---4-6-6-6-4-6-6-6---------3-4-7----|
    1 + 2 + 3 + 4 + 1 + 2 + 3 + 4 + 1 + 2 + 3 + 4 + 1 + 2 + 3 + 4 +

Chorus 1:33
G|-----------------------------------------------------------------------------------------|
D|---------------------------------------------------------6---------------5---------------|
A|---------2--------------(3)--------------------------------------------------------------|
D|-6---------------4-----------------------------------------------------------------------|
B|-------------------------1---------------------------------------------------------------|
   1 + 2 + 3 + 4 + 1 + 2 + 1 + 2 + 3 + 4 + 1 + 2 + 3 + 4 + 1 + 2 + 3 + 4 + 1 + 2 + 3 + 4 +

G|-----------------------------------------------------------------|
D|---------------------------------6-------------------------------|
A|(3)----------------------------------------------2---------------|
D|-----------------------------------------6---------------4-------|
B|-1---------------------------------------------------------------|
   1 + 2 + 3 + 4 + 1 + 2 + 3 + 4 + 1 + 2 + 3 + 4 + 1 + 2 + 3 + 4 +

1:46
G|-----------------------------------------------------------------|
D|---------------------------------------------------------5-3-----|
A|-333-----3-------333-----3-------333-----3-------333---------6-5-|
D|-----------------------------------------------------------------|
   1 + 2 + 3 + 4 + 1 + 2 + 3 + 4 + 1 + 2 + 3 + 4 + 1 + 2 + 3 + 4 +

G|-----------------------------------------------------------------|
D|--------------------------------/6--/6---------6-----------------|
A|-333-----3-------333-----3-3-3-3---------4-6-3---4---------------|
D|---------------------------------------------------------7-6-3-1-|
   1 + 2 + 3 + 4 + 1 + 2 + 3 + 4 + 1 + 2 + 3 + 4 + 1 + 2 + 3 + 4 +

Solo 1:59
G|-------------------------------------------------------------------|
D|o-----------------------------------------------------------------o|
A|o-----------------------------------------------------------------o|
D|----0-0-0-0-0-0-0-0-0-0-0-0-0-0-0-0-0-0-0-0-0-0-0-0-0-0-0-7-6-3-1--|
    1 + 2 + 3 + 4 + 1 + 2 + 3 + 4 + 1 + 2 + 3 + 4 + 1 + 2 + 3 + 4 +

2:11
G|-----------------------------------------------------------------|
D|-----------------------------------------------------------------|
A|------------/5---5----------/5---5----------/5---5---------------|
D|---0-0-0-0-0---------0-0-0-0---------0-0-0-0---------0-0-7-6-3-1-|
   1 + 2 + 3 + 4 + 1 + 2 + 3 + 4 + 1 + 2 + 3 + 4 + 1 + 2 + 3 + 4 +

G|-------------------------------------------------------------------|
D|------------------------------------------------/12---12-----------|
A|------------/5---5----------/5---5----------/5---------------------|
D|---0-0-0-0-0-------0-0-0-0-0-------0-0-0-0-0---------------3-4-7-6-|
   1 + 2 + 3 + 4 + 1 + 2 + 3 + 4 + 1 + 2 + 3 + 4 + 1  + 2  + 3 + 4 +

G|------------------------------------|
D|------------------------------------|
A|------------------------------------|
D|-----6---6-/-/-18---18-18---3-4-7---|
   1 + 2 + 3 + 4 +  1 +  2  + 3 + 4 + 

Verse 2:26
G|-------------------------------------------------------------------|
D|o-------------------------------------------------4-5-6-6---------o|
A|o-----------------------------------------------------------------o|
D|--4-6-6-6-4-6-6-6-4-6-6-6-3-4-7---4-6-6-6-4-6-6-6---------3-4-7----|
    1 + 2 + 3 + 4 + 1 + 2 + 3 + 4 + 1 + 2 + 3 + 4 + 1 + 2 + 3 + 4 +

G|-----------------------------------------------------------------|
D|-4-6-6-6-4-6-6-6-4-6-6-6---------4-6-6-6-4-6-6-6-4-5-6-6---------|
A|-----------------------------------------------------------------|
D|-------------------------3-4-7---------------------------3-4-7---|
   1 + 2 + 3 + 4 + 1 + 2 + 3 + 4 + 1 + 2 + 3 + 4 + 1 + 2 + 3 + 4 +

G|-------------------------------------------------11-12-13-13---------|
D|-4-6-6-6-4-6-6-6-4-6-6-6---------4-6-6-6-4-6-6-6---------------------|
A|---------------------------------------------------------------------|
D|-------------------------3-4-7-------------------------------3-4-7---|
   1 + 2 + 3 + 4 + 1 + 2 + 3 + 4 + 1 + 2 + 3 + 4 + 1  +  2  +  3 + 4 +

Chorus 2:50
G|-----------------------------------------------------------------------------------------|
D|---------------------------------------------------------6---------------5---------------|
A|---------2--------------(3)--------------------------------------------------------------|
D|-6---------------4-----------------------------------------------------------------------|
B|-------------------------1---------------------------------------------------------------|
   1 + 2 + 3 + 4 + 1 + 2 + 1 + 2 + 3 + 4 + 1 + 2 + 3 + 4 + 1 + 2 + 3 + 4 + 1 + 2 + 3 + 4 +

G|-----------------------------------------------------------------|
D|---------------------------------6-------------------------------|
A|(3)----------------------------------------------2---------------|
D|-----------------------------------------6---------------4-------|
B|-1---------------------------------------------------------------|
   1 + 2 + 3 + 4 + 1 + 2 + 3 + 4 + 1 + 2 + 3 + 4 + 1 + 2 + 3 + 4 +

3:04
G|-----------------------------------------------------------------|
D|---------------------------------------------------------5-3-----|
A|-----3---3---3-3-3-3-3---3---3-3-3-3-3---3---3-3-3-3-3-------6-5-|
D|-----------------------------------------------------------------|
   1 + 2 + 3 + 4 + 1 + 2 + 3 + 4 + 1 + 2 + 3 + 4 + 1 + 2 + 3 + 4 +

G|-----------------------------------------------------------------|
D|---------------------------------------------------------5-3-----|
A|-----3---3-3-3-----3-3---3---3-3-----3---3-3-3---3-----------6-5-|
D|-----------------------------------------------------------------|
   1 + 2 + 3 + 4 + 1 + 2 + 3 + 4 + 1 + 2 + 3 + 4 + 1 + 2 + 3 + 4 +

Outro 3:16
G|------------------------------------------------------------------------|
D|-------------10-10-10-\---------10-\-------------10-10-10-\-----5-3-----|
A|-----3---3-3------------3---3-3----------3---3-3------------3-3-----6-5-|
D|------------------------------------------------------------------------|
   1 + 2 + 3 + 4  +  1  + 2 + 3 + 4  + 1 + 2 + 3 + 4  +  1  + 2 + 3 + 4 +

G|--------------------------------------------------------------------------|
D|-------------10-10-10-----------10-10-10-----------10-10-10-------5-3-----|
A|-----3---3-3----------3-3-3-3-3----------3-3-3-3-3----------3-3-3-----6-5-|
D|--------------------------------------------------------------------------|
   1 + 2 + 3 + 4  +  1  + 2 + 3 + 4  +  1  + 2 + 3 + 4  +  1  + 2 + 3 + 4 +

3:28
G|--------------------------------------------------------------------|
D|--------------------------------------------------------------------|
A|--------------------------------------------------------------------|
D|------------/10-\------------/10-\------------/10-\-----------------|
B|-1-1-1-1-1-1----------1-1-1-1----------1-1-1-1----------1-1-1-1-1-1-|
   1 + 2 + 3 + 4  + 1 + 2 + 3 + 4  + 1 + 2 + 3 + 4  + 1 + 2 + 3 + 4 +

G|--------------------------------------------------------------------|
D|--------------------------------------------------------------------|
A|--------------------------------------------------------------------|
D|------------/10-\------------/10-\------------/10-\-----------------|
B|-1-1-1-1-1-1----------1-1-1-1----------1-1-1-1--------------1-1-1-1-|
   1 + 2 + 3 + 4  + 1 + 2 + 3 + 4  + 1 + 2 + 3 + 4  + 1 + 2 + 3 + 4 +

3:40
G|-----------------------------------------------------------------------|
D|-----------------------------------------------------------------------|
A|-----------------------------------------------------------------------|
D|------------/10---10-\--------/10---10-\--------/10---10-\-------------|
B|-1-1-1-1-1-1-----------1-1-1-1-----------1-1-1-1-----------1-1-1-1-1-1-|
   1 + 2 + 3 + 4  + 1  + 2 + 3 + 4  + 1  + 2 + 3 + 4  + 1  + 2 + 3 + 4 +

3:46
G|-----------------------------------------------------------------|
D|-----------------------------------------------------------------|
A|-------------1---------------------------------------------------|
D|-----------------------------3-----------------------------------|
B|-1---1---1-1---------------------------------1-------------------|
   1 + 2 + 3 + 4 + 1 + 2 + 3 + 4 + 1 + 2 + 3 + 4 + 1 + 2 + 3 + 4 +
Tabbed by Dave Vucko


G|-----------------------------------------------------------------|
D|-----------------------------------------------------------------|
A|-----------------------------------------------------------------|
D|-----------------------------------------------------------------|
   1 + 2 + 3 + 4 + 1 + 2 + 3 + 4 + 1 + 2 + 3 + 4 + 1 + 2 + 3 + 4 +

            
            
Suggest correction
Creating personal tab
Creating personal tab
You can edit any tab online and save it as your Personal.

You can edit, replace or remove any tab part or add personal notes – all changes will be seen only by you.

Personal tabs can be accessed anytime from any device, even offline.
Learn more »
Give kudos to tab author, rate the tab!
1 2 3 4 5
comments
print report bad tab
guest
You may want to rate the tab now too:
select rating
Wanna post a correction for this tab? Suggest correction