Oops, an error
Loading. Please wait.

Per Aspera Ad Inferi bass

version 1
version 1

Whole song

  • This tab is in D tuning instead of drop D, it's a ... Show more

Interactive

by Ghost
3,327 views 3 this week
no commentswrite comment
1 2 3 4 5
1 last vote to show rating
add to favorites
×
Save as Personal and add changes to this tab that will be seen only by you. Learn more ›
×
You can save this tab as Personal to edit and correct it or add notes. All changes will be seen only by you. Learn more »
launch autoscroll
font size
0
reset
guitar tuner
edit
Autoscroll
slow
fast
+/-
esc
set tempo
stop
G|-------------------------------------------------|
D|-------------------------------------------------|
A|-------------------------------6-----------7-----|
D|-5-----------------------------------------------|
   1 2 3 4 5 6 1 2 3 4 5 6 1 2 3 4 5 6 1 2 3 4 5 6 

G|-------------------------------------------------|
D|-------------------------------------------------|
A|-------------------------------------------------|
D|-5-----------------------------------------------|
   1 2 3 4 5 6 1 2 3 4 5 6 1 2 3 4 5 6 1 2 3 4 5 6

G|---------------------------------------------------|
D|o-------------------------------------------------o|
A|o-------------4-----------------------------------o|x4
D|--5-5-5-5-5-5-------5-5-5-5-5-5-1-----5-5-5-2------|
    1 2 3 4 5 6 1 2 3 4 5 6 1 2 3 4 5 6 1 2 3 4 5 6 

0:22
G|--------------------------------------------------|
D|o-------------------------------------------------|
A|o-------------------------6-4-2-6-----------------|
D|--1---1-------1---1-------------------------9-\---|
    1 2 3 4 5 6 1 2 3 4 5 6 1 2 3 4 5 6 1 2 3 4 5 6 

G|--------------------------------------------------|
D|-------------------------------------------------o|
A|-------------2---2-------------2-----1-----0-----o|
D|-1---1--------------------------------------------|
   1 2 3 4 5 6 1 2 3 4 5 6 1 2 3 4 5 6 1 2 3 4 5 6

0:36
G|---------------------------------------------------|
D|o-------------------------------------------------o|
A|o-------------4-----------------------------------o|
D|--5-5-5-5-5-5-------5-5-5-5-5-5-1-----5-5-5-2------|
    1 2 3 4 5 6 1 2 3 4 5 6 1 2 3 4 5 6 1 2 3 4 5 6 

0:44
G|--------------------------------------------------|
D|o-------------------------------------------------|
A|o-------------------------6-4-2-6-----------------|
D|--1---1-------1---1-------------------------9-\---|
    1 2 3 4 5 6 1 2 3 4 5 6 1 2 3 4 5 6 1 2 3 4 5 6 

G|--------------------------------------------------|
D|-------------------------------------------------o|
A|-------------2---2-------------2-----1-----0-----o|
D|-1---1--------------------------------------------|
   1 2 3 4 5 6 1 2 3 4 5 6 1 2 3 4 5 6 1 2 3 4 5 6

0:59
G|-------------------------------------------------|
D|-------------------------------------------------|
A|-------------------------------------------------|
D|-0-----0-----6-----0-----0-----8-----0-----9-----|
   1 2 3 4 5 6 1 2 3 4 5 6 1 2 3 4 5 6 1 2 3 4 5 6

G|-------------------------------------------|
D|-------------------------------------------|
A|-------------------------------------------|
D|-0-----0-----6-----0-----0-----8-----0-----|
   1 2 3 4 5 6 1 2 3 4 5 6 1 2 3 4 5 6 1 2 3 

1:06
G|---------------------------------------------------|
D|o-------------------------------------------------o|
A|o-6-----6-6-6-6-----6-----6-----6-6-6-6-----6-----o|x4
D|---------------------------------------------------|
    1 2 3 4 5 6 1 2 3 4 5 6 1 2 3 4 5 6 1 2 3 4 5 6

1:21
G|-------------------------------------------------|
D|-------------------------------------------------|
A|-6-----6-6-6-6-----6-----6-----6-6-6-6-----6-----|
D|-------------------------------------------------|
   1 2 3 4 5 6 1 2 3 4 5 6 1 2 3 4 5 6 1 2 3 4 5 6

G|-------------------------------------------------|
D|-------------------------------------------------|
A|-4-----4-4-4-4-----4-----2-----2-2-2-2-----2-----|
D|-------------------------------------------------|
   1 2 3 4 5 6 1 2 3 4 5 6 1 2 3 4 5 6 1 2 3 4 5 6

G|-------------------------------------------------|
D|-------------------------------------------------|
A|-2-----2-2-2-2-----4-----6-----6-6-6-6-----6-----|
D|-------------------------------------------------|
   1 2 3 4 5 6 1 2 3 4 5 6 1 2 3 4 5 6 1 2 3 4 5 6

G|-------------------------------------------------|
D|-------------------------------------------------|
A|-4-----4-4-4-4-----4-----2-----2-2-2-2-----2-----|
D|-------------------------------------------------|
   1 2 3 4 5 6 1 2 3 4 5 6 1 2 3 4 5 6 1 2 3 4 5 6

1:36
G|-------------------------------------------------|
D|-------------------------------------------------|
A|-------------------------------4-----------5-----|
D|-3-----------------------------------------------|
   1 2 3 4 5 6 1 2 3 4 5 6 1 2 3 4 5 6 1 2 3 4 5 6 

G|-------------------------------------------------|
D|-------------------------------------------------|
A|-------------------------------4-----------------|
D|-3-----0-----------0-----------------------0-----|
   1 2 3 4 5 6 1 2 3 4 5 6 1 2 3 4 5 6 1 2 3 4 5 6

1:44
G|--------------------------------------------------|
D|o-------------------------------------------------|
A|o-------------------------------------4---4-6---6-|
D|--------0-0-0-------0-0-0-------0-0-0-------------|
    1 2 3 4 5 6 1 2 3 4 5 6 1 2 3 4 5 6 1 2 3 4 5 6

G|--------------------------------------------------|
D|-------------------------------------------------o|
A|-----------------------------------5-4-5-5-4-5-5-o|
D|-0-0-0-2-2-2-3-3-3-8-8-8-7-7-7-6-6----------------|
   1 2 3 4 5 6 1 2 3 4 5 6 1 2 3 4 5 6 1 2 3 4 5 6

1:58
G|-------------------------------------------------|
D|-------------------------------------------------|
A|-------------------------------------------------|
D|-------0-0-0-------0-0-0-------------------------|
   1 2 3 4 5 6 1 2 3 4 5 6 1 2 3 4 5 6 1 2 3 4 5 6

G|-------------------------------------------------------------|
D|-------------------------------------------------------------|
A|-------------------------------------4-5-5-4-5-5-r-----------|
D|-0-0-0-2-2-2-3-3-3-8-8-8-7-7-7-6-6-6-------------------------|
   1 2 3 4 5 6 1 2 3 4 5 6 1 2 3 4 5 6 1 2 3 4 5 6 1 2 3 4 5 6

2:07
G|---------------------------------------------------|
D|o-------------------------------------------------o|
A|o-------------4-----------------------------------o|x4
D|--5-5-5-5-5-5-------5-5-5-5-5-5-1-----5-5-5-2------|
    1 2 3 4 5 6 1 2 3 4 5 6 1 2 3 4 5 6 1 2 3 4 5 6 

2:22
G|--------------------------------------------------|
D|o-------------------------------------------------|
A|o-------------------------6-4-2-6-----------------|
D|--1---1-------1---1-------------------------9-\---|
    1 2 3 4 5 6 1 2 3 4 5 6 1 2 3 4 5 6 1 2 3 4 5 6 

G|--------------------------------------------------|
D|-------------------------------------------------o|
A|-------------2---2-------------2-----1-----0-----o|x4
D|-1---1--------------------------------------------|
   1 2 3 4 5 6 1 2 3 4 5 6 1 2 3 4 5 6 1 2 3 4 5 6

2:52
G|-------------------------------------------------|
D|-------------------------------------------------|
A|-------------------------------------------------|
D|-0-----0-----6-----0-----0-----8-----0-----9-----|
   1 2 3 4 5 6 1 2 3 4 5 6 1 2 3 4 5 6 1 2 3 4 5 6

G|-------------------------------------------|
D|-------------------------------------------|
A|-------------------------------------------|
D|-0-----0-----6-----0-----0-----8-----0-----|
   1 2 3 4 5 6 1 2 3 4 5 6 1 2 3 4 5 6 1 2 3 

2:59
G|---------------------------------------------------|
D|o-------------------------------------------------o|
A|o-6-----6-6-6-6-----6-----6-----6-6-6-6-----6-----o|x4
D|---------------------------------------------------|
    1 2 3 4 5 6 1 2 3 4 5 6 1 2 3 4 5 6 1 2 3 4 5 6

3:14
G|-------------------------------------------------|
D|-------------------------------------------------|
A|-6-----6-6-6-6-----6-----6-----6-6-6-6-----6-----|
D|-------------------------------------------------|
   1 2 3 4 5 6 1 2 3 4 5 6 1 2 3 4 5 6 1 2 3 4 5 6

G|-------------------------------------------------|
D|-------------------------------------------------|
A|-4-----4-4-4-4-----4-----2-----2-2-2-2-----2-----|
D|-------------------------------------------------|
   1 2 3 4 5 6 1 2 3 4 5 6 1 2 3 4 5 6 1 2 3 4 5 6

G|-------------------------------------------------|
D|-------------------------------------------------|
A|-2-----2-2-2-2-----4-----6-----6-6-6-6-----6-----|
D|-------------------------------------------------|
   1 2 3 4 5 6 1 2 3 4 5 6 1 2 3 4 5 6 1 2 3 4 5 6

G|-------------------------------------------------|
D|-------------------------------------------------|
A|-4-----4-4-4-4-----4-----2-----2-2-2-2-----2-----|
D|-------------------------------------------------|
   1 2 3 4 5 6 1 2 3 4 5 6 1 2 3 4 5 6 1 2 3 4 5 6

3:29
G|--------------------------------------------------|
D|o-------------------------------------------------|
A|o-2-----2-2-2-2-----1-----------------------------|
D|--------------------------1-----1-1-1-1-----4-----|
    1 2 3 4 5 6 1 2 3 4 5 6 1 2 3 4 5 6 1 2 3 4 5 6

G|--------------------------------------------------|
D|-------------------1-----------------------------o|
A|-4-----4-4-4-4-----------2-----2-2-2-2-----2-----o|x3
D|--------------------------------------------------|
   1 2 3 4 5 6 1 2 3 4 5 6 1 2 3 4 5 6 1 2 3 4 5 6

G|-------------------------------------------------|
D|-------------------------------------------------|
A|-2-----2-2-2-2-----1-----------------------------|
D|-------------------------1-----1-1-1-1-----4-----|
   1 2 3 4 5 6 1 2 3 4 5 6 1 2 3 4 5 6 1 2 3 4 5 6

G|-------------------------------------------------|
D|-------------------1-----------------------------|
A|-4-----4-4-4-4-----------2-----2-2-2-2-2-2-2-2-2-|
D|-------------------------------------------------|
   1 2 3 4 5 6 1 2 3 4 5 6 1 2 3 4 5 6 1 2 3 4 5 6
Tabbed by Dave Vucko
Suggest correction
Creating personal tab
Creating personal tab
You can edit any tab online and save it as your Personal.

You can edit, replace or remove any tab part or add personal notes – all changes will be seen only by you.

Personal tabs can be accessed anytime from any device, even offline.
Learn more »
Give kudos to tab author, rate the tab!
1 2 3 4 5
comments
print report bad tab
guest
You may want to rate the tab now too:
select rating
Wanna post a correction for this tab? Suggest correction