Oops, an error
Loading. Please wait.

Ritual tab

version 2
version 2

Whole song

  • Im not quite sure. well, i notice most of the tabs... Show more

Interactive

by Ghost
2,173 views 39 this week
no commentswrite comment
1 2 3 4 5
2 more votes to show rating
add to favorites
×
Save as Personal and add changes to this tab that will be seen only by you. Learn more ›
×
You can save this tab as Personal to edit and correct it or add notes. All changes will be seen only by you. Learn more »
launch autoscroll
font size
0
reset
how to read this tab
guitar tuner
backing track
0:00
0:00
edit
Autoscroll
slow
fast
+/-
esc
set tempo
stop
About this tab version
Im not quite sure. well, i notice most of the tabs available are for guitar pro, and i cant afford guitar pro, and i figured i am not the only one who cant, so i have taken it upon myself to provide as many tabs of my favorite songs as possible. For us po’ folks. :). Was this info helpful? Yes No
Ritual

Standard Tuning, but tuned down one whole step

|: = repeat sign
:| = repeat sign
^ = hammer-on/pull-off
/ = slide up
\ = slide down
() = harmonics
x = string mute
^b = bend
qr = Quick Rest

pm
== = Palm Mute


INTRO
d|-----------------------------------------------------
A|----11-pm----11-------13-----10-------10-------10----
F|----10-=====-10-=====-10-==--10-=====-10-=====-10-==-
C|----12-12-12-12-12-12-12-12--12-12-12-12-12-12-12-12-
G|-----------------------------------------------------
D|-----------------------------------------------------


INTRO
d|---------------------------------------------------------------------------------------
A|----11-pm----11-------13-----10-------10-------10------8--------8--------8-------------
F|----10-=====-10-=====-10-==--10-=====-10-=====-10-==---9-=====--9-=====--9-==----------
C|----12-12-12-12-12-12-12-12--12-12-12-12-12-12-12-12--10-10-10-10-10-10-10-10----------
G|---------------------------------------------------------------------------------------
D|---------------------------------------------------------------------------------------


INTRO
d|---------------------------------------------------------------------
A|--8-----8-----8----10-------10-------10----10-------10-10----10------
F|--7-===-7-===-7-=--10-=====-10-=====-10-==-10-=====--9--9-==--9-==---
C|--9-9-9-9-9-9-9-9--12-12-12-12-12-12-12-12-12-12-12-11-11-11-11-11---
G|---------------------------------------------------------------------
D|---------------------------------------------------------------------


INTRO
d|-----------------------------------------------------
A|----11-pm----11-------13-----10-------10-------10----
F|----10-=====-10-=====-10-==--10-=====-10-=====-10-==-
C|----12-12-12-12-12-12-12-12--12-12-12-12-12-12-12-12-
G|-----------------------------------------------------
D|-----------------------------------------------------


INTRO
d|---------------------------------------------------------------------------------------
A|----11-pm----11-------13-----10-------10-------10------8--------8--------8------8------
F|----10-=====-10-=====-10-==--10-=====-10-=====-10-==---9-=====--9-=====--9-==---7------
C|----12-12-12-12-12-12-12-12--12-12-12-12-12-12-12-12--10-10-10-10-10-10-10-10---9------
G|---------------------------------------------------------------------------------------
D|---------------------------------------------------------------------------------------



INTRO LEAD PART
d|-------12----------------12----------------12----12\----------------
A|----------15----------------15----------------15-15\----------------
F|-12/14-------14----12/14-------14----12/14--------------------------
C|--------------------------------------------------------------------
G|--------------------------------------------------------------------
D|--------------------------------------------------------------------



VERSE PART
d|------------------------------------------------------------------
A|------------------------------------------------------------------
F|------------------------------------------------------------------
C|-----pm-----------------------------------------------------------
G|-3-2-===============-===========--3-2-=-2-===-2-=====---=------=--
D|-1-0-0-0-0-0-0-0-0-0-5-6-7-0-3-5--1-0-0-0-0-0-0-0-0-0-8-0-8-8\-0--


VERSE PART
d|----------------------------------------------------------------------
A|----------------------------------------------------------------------
F|----------------------------------------------------------------------
C|---------pm-----------------------------------------------------------
G|-3-2-=-2-=========-===========--3-2-=-2-===-2-=====---=---------------
D|-1-0-0-0-0-0-0-0-0-5-6-7-0-3-5--1-0-0-0-0-0-0-0-0-0-6-0-6-6\-0--------



VERSE
d|-----------------------------------------------------------------
A|-----------------------------------------------------------------
F|-----------------------------------------------------------------
C|-----------------------------------------------------------------
G|-3-2-=-2-=========--===========--3-2-=-2-===-2-=====---=------=--
D|-1-0-0-0-0-0-0-0-0--5-6-7-0-3-5--1-0-0-0-0-0-0-0-0-0-8-0-8-8\-0--



VERSE
d|-----------------------------------------------------------------
A|-----------------------------------------------------------------
F|-----------------------------------------------------------------
C|-----------------------------------------------------------------
G|-3-2-=-2-=========--===========--3-2-=-2-===-2-=====-5-=-5-5\----
D|-1-0-0-0-0-0-0-0-0--5-6-7-0-3-5--1-0-0-0-0-0-0-0-0-0---0---------



CHORUS, GUITAR ONE
d|-------------------------------------------------------------
A|----3-3-3--5--6--6-6-6--3-3-3--5--6-6-6-6--5-5-5-5--3--------
F|----3-3-3--5--7--7-7-7--3-3-3--5--7-7-7-7--5-5-5-5--3--------
C|----3-3-3--5--7--7-7-7--3-3-3--5--7-7-7-7--5-5-5-5--3--------
G|----1---------5---------1---------5--------3--------1--------
D|------------------------------------------------------------- 



CHORUS, GUITAR TWO
d|--------------------------------------------------------------------
A|--11-11-11-13--10-10-10-10--11-11-11-13--10-10-10-10--8--8--8--8--6-
F|--10-10-10-10--10-10-10-10--10-10-10-10--10-10-10-10--9--9--9--9--7-
C|--12-12-12-----12-12-12-12--12-12-12-----12-12-12-12-10-10-10-10--8-
G|--------------------------------------------------------------------
D|--------------------------------------------------------------------


VERSE
d|-----------------------------------------------------------------
A|-----------------------------------------------------------------
F|-----------------------------------------------------------------
C|-----------------------------------------------------------------
G|-3-2-=-2-=========--===========--3-2-=-2-===-2-=====---=------=--
D|-1-0-0-0-0-0-0-0-0--5-6-7-0-3-5--1-0-0-0-0-0-0-0-0-0-8-0-8-8\-0--



VERSE
d|----------------------------------------------------------------------
A|----------------------------------------------------------------------
F|----------------------------------------------------------------------
C|---------pm-----------------------------------------------------------
G|-3-2-=-2-=========-===========--3-2-=-2-===-2-=====---=---------------
D|-1-0-0-0-0-0-0-0-0-5-6-7-0-3-5--1-0-0-0-0-0-0-0-0-0-6-0-6-6\-0--------



VERSE
d|-----------------------------------------------------------------
A|-----------------------------------------------------------------
F|-----------------------------------------------------------------
C|-----------------------------------------------------------------
G|-3-2-=-2-=========--===========--3-2-=-2-===-2-=====---=------=--
D|-1-0-0-0-0-0-0-0-0--5-6-7-0-3-5--1-0-0-0-0-0-0-0-0-0-8-0-8-8\-0--



VERSE
d|----------------------------------------------------------------
A|----------------------------------------------------------------
F|----------------------------------------------------------------
C|----------------------------------------------------------------
G|-3-2-=-2-=========-===========--3-2-=-2-===-2-=====-5-=-5-5\----
D|-1-0-0-0-0-0-0-0-0-5-6-7-0-3-5--1-0-0-0-0-0-0-0-0-0---0---------



CHORUS, GUITAR ONE
d|----------------------------------------------------3-3-3-3-------------------------------
A|----3-3-3--5--6--6-6-6--3-3-3--5--6-6-6-6--5-5-5-5--3-3-3-3-6-6-6-6---3-2-2-2-------------
F|----3-3-3--5--7--7-7-7--3-3-3--5--7-7-7-7--5-5-5-5--4-4-4-4-7-7-7-7---2-2-2-2-------------
C|----3-3-3--5--7--7-7-7--3-3-3--5--7-7-7-7--5-5-5-5--5-5-5-5-7-7-7-7---2-2-2-2-------------
G|----1---------5---------1---------5--------3--------5-------5-----------0-0-0-------------
D|----------------------------------------------------3-------------------------------------



CHORUS, GUITAR ONE
d|----------------------------------------------------3-3-3-3-
A|----3-3-3--5--6--6-6-6--3-3-3--5--6-6-6-6--5-5-5-5--3-3-3-3-
F|----3-3-3--5--7--7-7-7--3-3-3--5--7-7-7-7--5-5-5-5--4-4-4-4-
C|----3-3-3--5--7--7-7-7--3-3-3--5--7-7-7-7--5-5-5-5--5-5-5-5-
G|----1---------5---------1---------5--------3--------5-------
D|----------------------------------------------------3-------



CHORUS, GUITAR ONE
d|-------------------------------------------------
A|-------------------------------------------------
F|-------------------------------------------------
C|-------------------------------------------------
G|-5-5-5-5-5---5-5-5-5-5---5-5-5-5-5---5-5-5-5-5\--
D|-----------4-----------4-----------4-------------



CHORUS, GUITAR TWO
d|------------------------------------------------------------------------------------------
A|--11-11-11-13--10-10-10-10--11-11-11-13--10-10-10-10--8--8--8--8--8-8-8-8-10-10-10-10-----
F|--10-10-10-10--10-10-10-10--10-10-10-10--10-10-10-10--9--9--9--9--7-7-7-7-10-10-10-10-----
C|--12-12-12-----12-12-12-12--12-12-12-----12-12-12-12-10-10-10-10--9-9-9-9-12-12-12-12-----
G|------------------------------------------------------------------------------------------
D|------------------------------------------------------------------------------------------



CHORUS, GUITAR TWO
d|---------------------
A|--10--10-10-10-------
F|---9---9--9--9-------
C|--12--11-11-11-------
G|---------------------
D|---------------------



CHORUS, GUITAR TWO
d|--------------------------------------------------------------------------
A|--11-11-11-13--10-10-10-10--11-11-11-13--10-10-10-10--8--8--8--8--8-8-8-8-
F|--10-10-10-10--10-10-10-10--10-10-10-10--10-10-10-10--9--9--9--9--7-7-7-7-
C|--12-12-12-----12-12-12-12--12-12-12-----12-12-12-12-10-10-10-10--9-9-9-9-
G|--------------------------------------------------------------------------
D|--------------------------------------------------------------------------



CHORUS, GUITAR TWO
d|-------------------------------------------------
A|-------------------------------------------------
F|-------------------------------------------------
C|-------------------------------------------------
G|-5-5-5-5-5---5-5-5-5-5---5-5-5-5-5---5-5-5-5-5\--
D|-----------4-----------4-----------4-------------



BRIDGE, PLAY FOUR TIMES                                  PLAY EIGHT TIMES
D||----------------------------------------------------||------------------||-----------
A||:--------------------------------------------------:||:----------------:||-----------
F||----------------------------------------------------||------------------||-----------
C||---pm----------=======-----=======------------------||---pm-------------||------LET--
G||:--=======-----0-0-0-0-0^2-3-3-3-3-3^2-=======-----:||:--=========--2--:||--(2)-RING-
D||---2-2-2-2-2^4-------------------------5-5-5-5-5^3--||---1-1-1-1-1------||-----------



SOLO
d|------------7-10/12--12--10----10----10-10/12--14^b14--------------------------------------
A|----------8-----------------12----12-------------------12^b12--15-13-12^b^b12--11^b11------
F|--------9----------------------------------------------------------------------------------
C|-7-8-9-------------------------------------------------------------------------------------
G|-------------------------------------------------------------------------------------------
D|-------------------------------------------------------------------------------------------



RHYTHM UNDER SOLO
d|-----------------------------------------------------------------
A|-----------------------------------------------------------------
F|-----------------------------------------------------------------
C|---PM------------------------------------------------------------
G|-3-===============--===========--3-2-=-2-===-2-=====---=------=--
D|-1-0-0-0-0-0-0-0-0--5-6-7-0-3-5--1-0-0-0-0-0-0-0-0-0-8-0-8-8\-0--



RHYTHM UNDER SOLO
d|----------------------------------------------------------------
A|----------------------------------------------------------------
F|----------------------------------------------------------------
C|----------------------------------------------------------------
G|-3-2-=-2-=========-===========--3-2-=-2-===-2-=====-4-=-4-4\----
D|-1-0-0-0-0-0-0-0-0-5-6-7-0-3-5--1-0-0-0-0-0-0-0-0-0---0---------



VERSE
d|-----------------------------------------------------------------
A|-----------------------------------------------------------------
F|-----------------------------------------------------------------
C|-----------------------------------------------------------------
G|-3-2-=-2-=========--===========--3-2-=-2-===-2-=====---=------=--
D|-1-0-0-0-0-0-0-0-0--5-6-7-0-3-5--1-0-0-0-0-0-0-0-0-0-8-0-8-8\-0--



VERSE
d|-----------------------------------------------------------------
A|-----------------------------------------------------------------
F|-----------------------------------------------------------------
C|-----------------------------------------------------------------
G|-3-2-=-2-=========--===========--3-2-=-2-===-2-=====-5-=-5-5\----
D|-1-0-0-0-0-0-0-0-0--5-6-7-0-3-5--1-0-0-0-0-0-0-0-0-0---0---------



CHORUS, GUITAR ONE
d|----------------------------------------------------3-3-3-3-------------------------------
A|----3-3-3--5--6--6-6-6--3-3-3--5--6-6-6-6--5-5-5-5--3-3-3-3-6-6-6-6---3-2-2-2-------------
F|----3-3-3--5--7--7-7-7--3-3-3--5--7-7-7-7--5-5-5-5--4-4-4-4-7-7-7-7---2-2-2-2-------------
C|----3-3-3--5--7--7-7-7--3-3-3--5--7-7-7-7--5-5-5-5--5-5-5-5-7-7-7-7---2-2-2-2-------------
G|----1---------5---------1---------5--------3--------5-------5-----------0-0-0-------------
D|----------------------------------------------------3-------------------------------------




CHORUS, GUITAR ONE
d|----------------------------------------------------3-3-3-3-------------------------------
A|----3-3-3--5--6--6-6-6--3-3-3--5--6-6-6-6--5-5-5-5--3-3-3-3-6-6-6-6---3-2-2-2-------------
F|----3-3-3--5--7--7-7-7--3-3-3--5--7-7-7-7--5-5-5-5--4-4-4-4-7-7-7-7---2-2-2-2-------------
C|----3-3-3--5--7--7-7-7--3-3-3--5--7-7-7-7--5-5-5-5--5-5-5-5-7-7-7-7---2-2-2-2-------------
G|----1---------5---------1---------5--------3--------5-------5-----------0-0-0-------------
D|----------------------------------------------------3-------------------------------------



CHORUS, GUITAR TWO
d|------------------------------------------------------------------------------------------
A|--11-11-11-13--10-10-10-10--11-11-11-13--10-10-10-10--8--8--8--8--8-8-8-8-10-10-10-10-----
F|--10-10-10-10--10-10-10-10--10-10-10-10--10-10-10-10--9--9--9--9--7-7-7-7-10-10-10-10-----
C|--12-12-12-----12-12-12-12--12-12-12-----12-12-12-12-10-10-10-10--9-9-9-9-12-12-12-12-----
G|------------------------------------------------------------------------------------------
D|------------------------------------------------------------------------------------------



CHORUS, GUITAR TWO
d|---------------------
A|--10--10-10-10-------
F|---9---9--9--9-------
C|--12--11-11-11-------
G|---------------------
D|---------------------



CHORUS, GUITAR TWO
d|------------------------------------------------------------------------------------------
A|--11-11-11-13--10-10-10-10--11-11-11-13--10-10-10-10--8--8--8--8--8-8-8-8-10-10-10-10-----
F|--10-10-10-10--10-10-10-10--10-10-10-10--10-10-10-10--9--9--9--9--7-7-7-7-10-10-10-10-----
C|--12-12-12-----12-12-12-12--12-12-12-----12-12-12-12-10-10-10-10--9-9-9-9-12-12-12-12-----
G|------------------------------------------------------------------------------------------
D|------------------------------------------------------------------------------------------



CHORUS, GUITAR TWO
d|---------------------
A|--10--10-10-10-------
F|---9---9--9--9-------
C|--12--11-11-11-------
G|---------------------
D|---------------------



END SOLO
d|--------------------------------------------------------------------------------------10---
A|--8^b8-6\5----5^b^b5------6-6-6-5-----------5^b5--5/6-5--------5/10-8---8/13-10---13-------
F|-----------7---------2-3----------7-5---5-7-------------7-5-4------------------------------
C|--------------------------------------7----------------------------------------------------
G|-------------------------------------------------------------------------------------------
D|-------------------------------------------------------------------------------------------



END SOLO
d|-------10-12-13-12^13^12^10--12-13-12--12^10----12^10----12^13--12^10----12^10----10-12-----
A|---13----------------------------------------11-------11--------------10-------10-----------
F|--------------------------------------------------------------------------------------------
C|--------------------------------------------------------------------------------------------
G|--------------------------------------------------------------------------------------------
D|--------------------------------------------------------------------------------------------



END SOLO
d|-13^10-----13^10-----15----17^13-----8/15-13-12---------------------------------------------
A|-------11--------11-----13-------15--------------12^13^15-12--------------------------------
F|--------------------------------------------------------------14-12-12^14--14^b14-12-14-----
C|--------------------------------------------------------------------------------------------
G|--------------------------------------------------------------------------------------------
D|--------------------------------------------------------------------------------------------



END SOLO
d|--------------------------------------------------------------------------------------------
A|--------------------------------------------------------------------------------------------
F|--7/9-10/17--14---7/9-10/12-9--12-10-9-5-5/7--7-9-10-12/14--7/9-10/17--14--7/9-10/12-9------
C|--X/X--X/-X---X---X/X--X/-X-X---X--X-X-X-X/X--X-X--X--X/-X--X/X--X/-X---X--X/X--X/-X-X------
G|--5/7--8/15--12---5/7--8/10-7--10--8-7-3-3/5--5-7--8-10/12--5/7--8/15--12--5/7--8/10-7------
D|--------------------------------------------------------------------------------------------



END SOLO
d|----------------------------------10--FADE-OUT----------------------
A|-----------------------------------6--------------------------------
F|--12-10-9-5-5/7--7-9-10-12/14---------------------------------------
C|---X--X-X-X-X/X--X-X--X--X/-X---------------------------------------
G|--10--8-7-3-3/5--5-7--8-10/12---------------------------------------
D|--------------------------------------------------------------------


RHYTHM UNDER SOLO, REPEAT ‘TIL FADE-OUT
D||--------------------------------------------------------------------------------||
A||:--3-3-3--5--6--6-6-6--3-3-3--5--6-6-6-6--5-5-5-5--8-8-8-8-6-6-6-6---3-2-2-2---:||
F||---3-3-3--5--7--7-7-7--3-3-3--5--7-7-7-7--5-5-5-5--7-7-7-7-7-7-7-7---2-2-2-2----||
C||---3-3-3--5--7--7-7-7--3-3-3--5--7-7-7-7--5-5-5-5--5-5-5-5-7-7-7-7---2-2-2-2----||
G||:--1-1-1--3--5--5-5-5--1-1-1--3--5-5-5-5--3-3-3-3----------5-5-5-5-----0-0-0---:||
D||--------------------------------------------------------------------------------||





            
            
Suggest correction
Creating personal tab
Creating personal tab
You can edit any tab online and save it as your Personal.

You can edit, replace or remove any tab part or add personal notes – all changes will be seen only by you.

Personal tabs can be accessed anytime from any device, even offline.
Learn more »
Give kudos to tab author, rate the tab!
1 2 3 4 5
comments
print report bad tab
guest
You may want to rate the tab now too:
select rating
Wanna post a correction for this tab? Suggest correction