Oops, an error
Loading. Please wait.

Satan Prayer bass

version 2
version 2

Whole song

Interactive

by Ghost
1,055 views 3 this week
1 commentread comment
1 2 3 4 5
x 4
add to favorites
×
Save as Personal and add changes to this tab that will be seen only by you. Learn more ›
×
You can save this tab as Personal to edit and correct it or add notes. All changes will be seen only by you. Learn more »
launch autoscroll
font size
0
reset
guitar tuner
backing track
0:00
0:00
edit
Autoscroll
slow
fast
+/-
esc
set tempo
stop
0:13
G|-------------------------------------------------------------------|
D|-------------------------------------------------------------------|
A|-5-4-------------------------------------------------------------5-|
D|-------0---0---0---0---0---0---0---0---0---0---0---0---0---0-------|
   + 1 + 2 + 3 + 4 + 1 + 2 + 3 + 4 + 1 + 2 + 3 + 4 + 1 + 2 + 3 + 4 +

G|-----------------------------------------------------|
D|-----------------------------------------------------|
A|-4---------------------------------------------------|
D|-----0---0---0-0-3-4---1-0---0---0---0---0---0---0-0-|
   1 + 2 + 3 + 4 + 1 + 2 + 1 + 2 + 3 + 4 + 1 + 2 + 3 + 

0:27
G|-----------------------------------------------------------------|
D|-----------------------------------------------------------------|
A|-5---------------4-----------------------5---3h5---------5---3h5-|
D|---------------------------------0-----0---------0-----0---------|
   1 + 2 + 3 + 4 + 1 + 2 + 3 + 4 + 1 + 2 + 3 + 4 + 1 + 2 + 3 + 4 +

G|-----------------------------------------------------------------|
D|-------------------------6---5h6---------------------------------|
A|---------5-5-3h5-4-----4-----------------5---3h5---------5---3h5-|
D|-0-----0-------------------------0-----0---------0-----0---------|
   1 + 2 + 3 + 4 + 1 + 2 + 3 + 4 + 1 + 2 + 3 + 4 + 1 + 2 + 3 + 4 +

0:41
G|-------------------------6---5-----------------------------------|
D|---------------------------------6-----6-----5-----------3h5-3h5-|
A|---------5---3h5-4-----4-------------------------3-----3---------|
D|-0-----0---------------------------------------------------------|
   1 + 2 + 3 + 4 + 1 + 2 + 3 + 4 + 1 + 2 + 3 + 4 + 1 + 2 + 3 + 4 +

G|---------------------------------------------------------------------------------|
D|---------5-------------------------------6---5h6---------------------------------|
A|-3-----3-----3-4---------5---3h5-4-----4-----------------5---3h5---------5---3-4-|
D|-----------------0-----0-------------------------0-----0---------0-----0---------|
   1 + 2 + 3 + 4 + 1 + 2 + 3 + 4 + 1 + 2 + 3 + 4 + 1 + 2 + 3 + 4 + 1 + 2 + 3 + 4 +

0:57
G|-------------7---------------10--9-------------/-12----9---------|
D|-------7---------------10--------------10----7---------------10--|
A|-5---------------8-----------------------------------------------|
D|-----------------------------------------------------------------|
   1 + 2 + 3 + 4 + 1 + 2 + 3 + 4 + 1 + 2 + 3 + 4 + 1 + 2 + 3 + 4 +

G|-14----12--------------------------------|
D|-------------15--13----------------------|
A|---------------------------------------5-|
D|-----------------------------------------|
   1 + 2 + 3 + 4 + 1 + 2 + 3 + 4 + 1 + 2 + 

G|-----------------------------------------------------------------|
D|-----------------------------------------------------------------|
A|-4-------------------------------------------------------------5-|
D|-----0---0---0---0---0---0---0---0---0---0---0---0---0---0-------|
   1 + 2 + 3 + 4 + 1 + 2 + 3 + 4 + 1 + 2 + 3 + 4 + 1 + 2 + 3 + 4 +

G|-----------------------------------------------------|
D|-----------------------------------------------------|
A|-4---------------------------------------------------|
D|-----0---0---0-0-3-4---1-0---0---0---0---0---0-------|
   1 + 2 + 3 + 4 + 1 + 2 + 1 + 2 + 3 + 4 + 1 + 2 + 3 + 

1:24
G|--------------------------------------------6---------6-----------|
D|o-----------------------------------------6---------------6-------|
A|o---------5---------------5-------4-----4-------------------------|
D|--0-----0---0---------0-------------------------------------------|
    1 e + a 2 e + a 3 e + a 4 e + a 1 e + a 2 e + a 3 e + a 4 e + a 

G|------------------------------------------------------------------|
D|-----------------------------------------------------------------o|
A|---------5---------------5---------------5---------------5-------o|
D|-0-----0---0---------0-----------0-----0---0---------0------------|
   1 e + a 2 e + a 3 e + a 4 e + a 1 e + a 2 e + a 3 e + a 4 e + a 

G|-------------------------------------------6---------6-------------------------------------------|
D|-----------------------------------------6---------------6---------------6---------------6-------|
A|---------5---------------5-------4-----4---------------------------------------------------------|
D|-0-----0---0---------0-------------------------------------------6-----6---6---------6-----------|
   1 e + a 2 e + a 3 e + a 4 e + a 1 e + a 2 e + a 3 e + a 4 e + a 1 e + a 2 e + a 3 e + a 4 e + a 

G|---------5---------------5---------------5-----------5-----------|
D|-----------------------------------------------------------------|
A|-3-----3---3---------3-----------3-----3---3-------------3-------|
D|-----------------------------------------------------------------|
   1 e + a 2 e + a 3 e + a 4 e + a 1 e + a 2 e + a 3 e + a 4 e + a 

1:48
G|-------------------------------------------6---------6-----------|
D|-----------------------------------------6---------------6-------|
A|---------5---------------5-------4-----4-------------------------|
D|-0-----0---0---------0-------------------------------------------|
   1 e + a 2 e + a 3 e + a 4 e + a 1 e + a 2 e + a 3 e + a 4 e + a 

G|-----------------------------------------------------------------|
D|-----------------------------------------------------------------|
A|---------5---------------5---------------5---------------3---4---|
D|-0-----0---0---------0-----------0-----0---0---------0-----------|
   1 e + a 2 e + a 3 e + a 4 e + a 1 e + a 2 e + a 3 e + a 4 e + a 

G|-----------------------------------------------------------------|
D|-----------------------------------------3---------------3-------|
A|---------5---------------5---------------------------------------|
D|-0-----0---0---------0-----------3-----3---3---------3-----------|
   1 e + a 2 e + a 3 e + a 4 e + a 1 e + a 2 e + a 3 e + a 4 e + a 

G|-----------------------------------------5---------------5-------|
D|---------7---------------7---------------------------------------|
A|-0-----0---0---------0-----------3-----3---3---------3-----------|
D|-----------------------------------------------------------------|
   1 e + a 2 e + a 3 e + a 4 e + a 1 e + a 2 e + a 3 e + a 4 e + a 

G|-----------------------/-7---------------------------------------|
D|-------------7-------------------6-------------------------------|
A|-5---------------------------------------------------------------|
D|-----------------------------------------------------------------|
   1 e + a 2 e + a 3 e + a 4 e + a 1 e + a 2 e + a 3 e + a 4 e + a 

2:06
G|-----------------------------------------------------------5h7---|
D|-------------------------------------------------------5h7-----7-|
A|-----------------------------------------------------------------|
D|-0-0-----0-0-----0-0-----0-0-----0-0-----0-0-----0-0-------------|
   1 + 2 + 3 + 4 + 1 + 2 + 3 + 4 + 1 + 2 + 3 + 4 + 1 + 2 + 3 + 4 +

G|-----------------------------------------------------------------|
D|-----------------------------------------------------------------|
A|-----------------------------------------------------------------|
D|-0-0-----0-0-----0-0-----0-0-----0-0-----0-0-----0-0-----7-7-7-\-|
   1 + 2 + 3 + 4 + 1 + 2 + 3 + 4 + 1 + 2 + 3 + 4 + 1 + 2 + 3 + 4 +

2:20
G|-----------------------------------------------------------------|
D|-----------------------------------------------------------------|
A|-------------------------3-r-3-/-6-r-6-\-1-r-1---0-r-0---0-r-0---|
D|-0-r-0---0-r-0---3-r-3-------------------------------------------|
   1 + 2 + 3 + 4 + 1 + 2 + 3 + 4 + 1 + 2 + 3 + 4 + 1 + 2 + 3 + 4 +

G|-----------------------------------------------------------------|
D|-----------------------------------------------------------------|
A|-------------------------3-r-3-/-6-r-6-\-1-r-1-------------------|
D|-0-r-0---0-r-0---3-r-3-------------------------------2---3---4-5-|
   1 + 2 + 3 + 4 + 1 + 2 + 3 + 4 + 1 + 2 + 3 + 4 + 1 + 2 + 3 + 4 +

2:36
G|-----------------------------------------------------------------|
D|-----------------------------------------------------------------|
A|-----------------------------------------------------------------|
D|-1-1-1-1-2-2-2-2-3-3-3-3-4---5---1-1-1-1-2-2-2-2-3-3-3-3-4---5---|
   1 e + a 2 e + a 3 e + a 4 e + a 1 e + a 2 e + a 3 e + a 4 e + a 

G|-----------------------------------------------------------------|
D|-----------------------------------------------------------------|
A|-----------------------------------------------------------------|
D|-----0---1-----1-2-----2-3-3-4-----------2-2-2-2-3-3-3-3-4---5---|
   1 e + a 2 e + a 3 e + a 4 e + a 1 e + a 2 e + a 3 e + a 4 e + a 

G|-----------------------------------------------------------------|
D|-----------------------------------------------------------------|
A|-----------------------------------------------------------------|
D|-1-1-1-1-2-2-2-2-3-3-3-3-4---5---1-1-1-1-2-2-2-2-3-3-3-3-4---5---|
   1 e + a 2 e + a 3 e + a 4 e + a 1 e + a 2 e + a 3 e + a 4 e + a 

G|-----------------------------------------------------------------|
D|-----------------------------------------------------------------|
A|---------------------------------5-------------------------------|
D|-----0---1-------2-------3---4-----------------------------------|
   1 e + a 2 e + a 3 e + a 4 e + a 1 e + a 2 e + a 3 e + a 4 e + a 

2:52
G|-----------------------------------------------------------------|
D|---------------------------------------------------------6---5h6-|
A|---------5---3h5---------5---3h5---------5-5-3h5-4-----4---------|
D|-0-----0---------0-----0---------0-----0-------------------------|
   1 + 2 + 3 + 4 + 1 + 2 + 3 + 4 + 1 + 2 + 3 + 4 + 1 + 2 + 3 + 4 +

G|---------------------------------|
D|---------------------------------|
A|---------5---3h5---------5---3-4-|
D|-0-----0---------0-----0---------|
   1 + 2 + 3 + 4 + 1 + 2 + 3 + 4 +

3:03
G|-------------7---------------10--9-------------------------------|
D|-------7---------------10--------------10--------10--------------|
A|-5---------------8---------------------------10--------10----7---|
D|-----------------------------------------------------------------|
   1 + 2 + 3 + 4 + 1 + 2 + 3 + 4 + 1 + 2 + 3 + 4 + 1 + 2 + 3 + 4 +

G|-----------------------------------------------------------------|
D|-----------------------3-----5---3-----2-------------------------|
A|-5-----7-----8-\-1---------------------------1---0---------------|
D|-------------------------------------------------------5-----3-2-|
   1 + 2 + 3 + 4 + 1 + 2 + 3 + 4 + 1 + 2 + 3 + 4 + 1 + 2 + 3 + 4 +

3:18
G|-------------------------------------------------------------5---|
D|-----------------------------3---------------7-------------------|
A|-------------5-\-----------------0-----0---0-----3-----3---3-----|
D|-0-----0---0-----3-----3---3-------------------------------------|
   1 + 2 + 3 + 4 + 1 + 2 + 3 + 4 + 1 + 2 + 3 + 4 + 1 + 2 + 3 + 4 +

G|-------------5---8-------------------------------|
D|-------7-----------------------------------------|
A|-5-----------------------------------------------|
D|-------------------------------------------------|
   1 + 2 + 3 + 4 + 1 + 2 + 3 + 4 + 1 + 2 + 3 + 4 +

3:30
G|-----------------------------------------------------------------|
D|-----------------------------------------------------------------|
A|-------------------------------------------------0---0-0-0---0-0-|
D|-0---0---0---0---0---0---0---0---0---0---0---0-------------------|
   1 + 2 + 3 + 4 + 1 + 2 + 3 + 4 + 1 + 2 + 3 + 4 + 1 + 2 + 3 + 4 +

G|-----------------------------------------------------------------|
D|-----------------------------------------------------------------|
A|-----------------------------------------------------------------|
D|-0---0---0---0---0---0---0---0---0---0---0---0---7---7---7---7-\-|
   1 + 2 + 3 + 4 + 1 + 2 + 3 + 4 + 1 + 2 + 3 + 4 + 1 + 2 + 3 + 4 +

3:46
G|-------------------------------------------------------------------|
D|o-----------------------------------------------------------------o|
A|o-------------------------3-r-3-/-6-r-6-\-1-r-1---0-r-0---0-r-0---o|x5
D|--0-r-0---0-r-0---3-r-3--------------------------------------------|
    1 + 2 + 3 + 4 + 1 + 2 + 3 + 4 + 1 + 2 + 3 + 4 + 1 + 2 + 3 + 4 +

4:22
G|-----------------------------------------------------------------|
D|-----------------------------------------------------------------|
A|-------------------------3-r-3-/-6-r-6-\-1-r-1-------------------|
D|-0-r-0---0-r-0---3-r-3-------------------------------2---3---4-5-|
   1 + 2 + 3 + 4 + 1 + 2 + 3 + 4 + 1 + 2 + 3 + 4 + 1 + 2 + 3 + 4 +

G|-----------------------------------------------------------------|
D|-----------------------------------------------------------------|
A|-----------------------------------------------------------------|
D|-----0---1-------2-------3---4---0-------------------------------|
   1 e + a 2 e + a 3 e + a 4 e + a 1 e + a 2 e + a 3 e + a 4 e + a 
Suggest correction
Creating personal tab
Creating personal tab
You can edit any tab online and save it as your Personal.

You can edit, replace or remove any tab part or add personal notes – all changes will be seen only by you.

Personal tabs can be accessed anytime from any device, even offline.
Learn more »
comments
print report bad tab
1 comment total.
0 reply
Tanner Streeter 324 Jun 10, 2013 08:04 PM

If you were to mash parts of this tab and the other tab on here together, you'd have the perfect tab for this song. 5* from me though.

guest
You may want to rate the tab now too:
select rating
Wanna post a correction for this tab? Suggest correction