Oops, an error
Loading. Please wait.

Secular Haze tab

version 1
version 1

Whole song

Interactive

by Ghost
2,366 views 27 this week
no commentswrite comment
1 2 3 4 5
1 last vote to show rating
add to favorites
×
Save as Personal and add changes to this tab that will be seen only by you. Learn more ›
×
You can save this tab as Personal to edit and correct it or add notes. All changes will be seen only by you. Learn more »
launch autoscroll
font size
0
reset
how to read this tab
guitar tuner
backing track
0:00
0:00
edit
Autoscroll
slow
fast
+/-
esc
set tempo
stop
Secular Haze

Standard Tuning, but tuned down one whole step

|: = repeat sign
:| = repeat sign
^ = hammer-on/pull-off
/ = slide up
\ = slide down
() = harmonics
x = string mute
^b = bend
qr = Quick Rest

pm
== = Palm Mute



INTRO, REPEAT ONCE, GUITAR ONE
d||---------------------------------------------------------------------------------||
A||:----------------------------------15-15-15/18--18-18\17--17-17\15--15-15\13-13-:||
F||---7-7-7--15\14\13-13--14-14-14-14--X--X--X/-X---X--X\-X---X--X\-X---X--X\-X--X--||
C||---X-X-X---X--X--X--X---X--X--X--X-12-12-12/15--15-15\14--14-14\12--12-12\10-10--||
G||:--5-5-5--13\12\11-11--12-12-12-12----------------------------------------------:||
D||---------------------------------------------------------------------------------||


INTRO, GUITAR ONE
d|---------------------------------------------------------------------
A|---------------------------------------------------------------------
F|---9-9-9--------------------9-9-9/16-16-16\15-15-15\12-12-12\11-11---
C|---x-x-x--10\9\8-8-9-9-9-9--x-x-x/-x--x--x\-x--x--x\-x--x--x\-x--x---
G|---7-7-7---x-x-x-x-x-x-x-x--7-7-7/14-14-14\13-13-13\10-10-10\-9--9---
D|-----------8\7\6-6-7-7-7-7-------------------------------------------


INTRO, GUITAR ONE
d|---------------------------------------------------------------------
A|----------------------------------15-15-15\13-13-13\12-12-12\10-10---
F|--9-9-9--------------------9-9-9---x--x--x\-x--x--x--x--x--x\-x--x---
C|--x-x-x--10\9\8-8-9-9-9-9--x-x-x--12-12-12\10-10-10\-9--9--9\-7--7---
G|--7-7-7---x-x-x-x-x-x-x-x--7-7-7-------------------------------------
D|----------8\7\6-6-7-7-7-7--------------------------------------------



INTRO, GUITAR TWO, REPEAT ONCE
D||----------------------------------------------------||
A||:--------------------------------------------------:||
F||----------------------------------------------------||
C||----------------------------7-7-7\6-6-6\3-3-3\2-2---||
G||:--5-5-5-------------------------------------------:||
D||---------6^5^4-4-5-5^6-6-6--------------------------||


INTRO, GUITAR TWO, REPEAT ONCE
D||-------------------------------------------------------||
A||:-----------------------------------------------------:||
F||-------------------------------------------------------|| 
C||-------------------------------------------------------|| 
G||:--7------------------------10-10-10\9-9-9\7-7-7\5-5--:|| 
D||---0-8^7^6-6-7--7/12-12--12----------------------------||


INTRO, BOTH GUITARS, PLAY FOUR TIMES
D||-----------------------------------------||
A||:---------------------------------------:||
F||---PM----------------PM----------7-6-5---||
C||---=====--4^5^4\2^3--===========-7-6-5---||
G||:--4-4-4-------------4-4-4-4-4-4-5-4-3--:||
D||---2-2-2-------------2-2-2-2-2-2---------||


VERSE, GUITAR ONE
D||-------------------------------||--------------------------------
A||:-----------------------------:||--------------------------------
F||--11----7-6-4---11--11/16-16---||--11---7-6-4---11-7-6-4---------
C||---X----X-X-X----X---X/-X--X---||---X---X-X-X----X-X-X-X---------
G||:--9----5-4-2----9---9/14-14--:||---9---5-4-2----9-5-4-2---------
D||-------------------------------||--------------------------------


VERSE, GUITAR TWO
D||-------------------------------||--------------------------------
A||:-----------------------------:||--------------------------------
F||-------------------------------||--------------------------------
C||---9----8-7-5----9--9/12-12----||--9--8-7-5------9---8-7-5-------
G||:--X----X-X-X----X--X/-X--X---:||--X--X-X-X------X---X-X-X-------
D||---7----6-5-3----7--7/10-10----||--7--6-5-3------7---6-5-3-------



VERSE ENDING, BOTH GUITARS
d|------------------------
A|------------------------
F|-------------------5--3-
C|-------------------5--3-
G|--4-4-4------------3--1-
D|--2-2-2--2^3^2^0^1------



CHORUS
d|--------0--------0--------0--------0--------0--------0--------0---------0---
A|-----10-------10-------10-------10-------10-------10-------10--------10-----
F|----------------------------------------------------------------------------
C|--12-------12-------12-------12-------12-------12-------12--------12--------
G|----------------------------------------------------------------------------
D|----------------------------------------------------------------------------



CHORUS
d|--------0--------0--------0--------0----------0--------0--------0--------0--
A|-----11-------11-------11-------11---------10-------10-------10-------10----
F|----------------------------------------------------------------------------
C|--12-------12-------12-------12---------11-------11-------11-------11-------
G|----------------------------------------------------------------------------
D|----------------------------------------------------------------------------


CHORUS
d|--------0--------0--------0--------0--------0--------0--------0---------0---
A|-----10-------10-------10-------10-------10-------10-------10--------10-----
F|----------------------------------------------------------------------------
C|--12-------12-------12-------12-------12-------12-------12--------12--------
G|----------------------------------------------------------------------------
D|----------------------------------------------------------------------------



CHORUS
d|--------0--------0--------0--------0----------------------------------------
A|-----11-------11-------11-------11------------------------------------------
F|-----------------------------------------------------------------8--6--7----
C|--12-------12-------12-------12-------------7--7--7--------------8--6--7----
G|--------------------------------------------7--7--7--------------6--4--5----
D|--------------------------------------------5--5--5---5^6^5\3^4-------------



GUITAR ONE
d|---------------------------------10-10-10/13-13-13\12-12-12\10-10--------------
A|-----------11\10\9-9-10-10-10-10--X--X--X/-X--X--X\-X--X--X\-X--X--------------
F|----7-7-7---X\-X\X-X--X--X--X--X--7--7--7/10-10-10\-9--9--9\-7--7------QUICK---
C|----X-X-X---8\-7\6-6--7--7--7--7---------------------------------------REST----
G|----5-5-5----------------------------------------------------------------------
D|-------------------------------------------------------------------------------


GUITAR TWO
d|--------------------------------------------------------------------
A|--------------------------------------------------------------------
F|-------------------------------------------------------QUICK--------
C|-------------------------------------------------------REST---------
G|----5-5-5---------------------5/12-12-12\11-11-11\8-8---------------
D|----------6^5^4-4-5-5-5-5/6-6---------------------------------------



VERSE, GUITAR ONE
D||-------------------------------||--------------------------------
A||:-----------------------------:||--------------------------------
F||--11----7-6-4---11--11/16-16---||--11---7-6-4---11-7-6-4---------
C||---X----X-X-X----X---X/-X--X---||---X---X-X-X----X-X-X-X---------
G||:--9----5-4-2----9---9/14-14--:||---9---5-4-2----9-5-4-2---------
D||-------------------------------||--------------------------------


VERSE, GUITAR TWO
D||-------------------------------||--------------------------------
A||:-----------------------------:||--------------------------------
F||-------------------------------||--------------------------------
C||---9----8-7-5----9--9/12-12----||--9--8-7-5------9---8-7-5-------
G||:--X----X-X-X----X--X/-X--X---:||--X--X-X-X------X---X-X-X-------
D||---7----6-5-3----7--7/10-10----||--7--6-5-3------7---6-5-3-------


VERSE ENDING, BOTH GUITARS
d|------------------------
A|------------------------
F|-------------------5--3-
C|-------------------5--3-
G|--4-4-4------------3--1-
D|--2-2-2--2^3^2^0^1------


CHORUS
d|--------0--------0--------0--------0--------0--------0--------0---------0---
A|-----10-------10-------10-------10-------10-------10-------10--------10-----
F|----------------------------------------------------------------------------
C|--12-------12-------12-------12-------12-------12-------12--------12--------
G|----------------------------------------------------------------------------
D|----------------------------------------------------------------------------


CHORUS
d|--------0--------0--------0--------0----------0--------0--------0--------0--
A|-----11-------11-------11-------11---------10-------10-------10-------10----
F|----------------------------------------------------------------------------
C|--12-------12-------12-------12---------11-------11-------11-------11-------
G|----------------------------------------------------------------------------
D|----------------------------------------------------------------------------


CHORUS
d|--------0--------0--------0--------0--------0--------0--------0---------0---
A|-----10-------10-------10-------10-------10-------10-------10--------10-----
F|----------------------------------------------------------------------------
C|--12-------12-------12-------12-------12-------12-------12--------12--------
G|----------------------------------------------------------------------------
D|----------------------------------------------------------------------------


CHORUS
d|--------0--------0--------0--------0----------------------------------------
A|-----11-------11-------11-------11------------------------------------------
F|-----------------------------------------------------------------8--6--7----
C|--12-------12-------12-------12-------------7--7--7--------------8--6--7----
G|--------------------------------------------7--7--7--------------6--4--5----
D|--------------------------------------------5--5--5---5^6^5\3^4-------------



SOLO, GUITAR ONE
d|-----------------------------------------------------------------------------------------
A|---------------13-12-12\10-10\8-8-8\7-5-3^5-3--5--------------15-15-15\13-13-13\12-12\10-
F|-------9-11-12---------------------------------x--------16\4---X--X--X\-X--X--X\-X--X\-X-
C|--9-10-----------------------------------------2--14-16-14\2--12-12-12\10-10-10\-9--9\-7-
G|-----------------------------------------------------------------------------------------
D|-----------------------------------------------------------------------------------------


SOLO, GUITAR ONE
d|------------------------------------
A|-10-11------7--11------7--11------7-
F|--X--X-18\6-6---X-18\6-6---X-18\6-6-
C|--7--8-16\4-4---8-16\4-4---8-16\4-4-
G|------------------------------------
D|------------------------------------


SOLO, GUITAR ONE
--14*SPEED-PICK-17-14-17-14--14*SPEED-PICK-17-14-17-14---19-QUICK-
---------------------------------------------------------19-REST--
------------------------------------------------------------------
------------------------------------------------------------------
------------------------------------------------------------------
------------------------------------------------------------------



RHYTHM UNDER SOLO, GUITAR TWO
d|---------------------------------------------------------------
A|---------------------------------------------------------------
F|--9-9-9--------------------9-9-9/12-12-12\11-11-11\9-9-9\7-7---
C|--X-X-X--10\9\8-8-9-9-9-9--X-X-X/-X--X--X\-X--X--X\X-X-X\X-X---
G|--7-7-7---X-X-X-X-X-X-X-X--7-7-7/10-10-10\-9--9--9-7-7-7\5-5---
D|----------8\7\6-6-7-7-7-7--------------------------------------


RHYTHM UNDER SOLO, GUITAR TWO
d|---------------------------------------------------------------
A|---------------------------------------------------------------
F|--9------------------------9-9-9/12-12-12\11-11-11\9-9-9\7-7---
C|--X------10\9\8-8-9-9-9-9--X-X-X/-X--X--X\-X--X--X\X-X-X\X-X---
G|--7-------X-X-X-X-X-X-X-X--7-7-7/10-10-10\-9--9--9-7-7-7\5-5---
D|--0-------8\7\6-6-7-7-7-7--------------------------------------


RHYTHM UNDER SOLO, GUITAR TWO
d|----------------------------------------------------------------------
A|--11/----------11/----------11/---------------------------------------
F|---X/-18-\6-6---X/-18-\6-6---X/-18-\6-6-------------------------------
C|---8/-16-\4-4---8/-16-\4-4---8/-16-\4-4-------------------------------
G|----------------------------------------------------------------------
D|----------------------------------------------------------------------


RHYTHM UNDER SOLO, GUITAR TWO
--14*SPEED-PICK-17-14-17-14--14*SPEED-PICK-17-14-17-14---19-QUICK-
---------------------------------------------------------19-REST--
------------------------------------------------------------------
------------------------------------------------------------------
------------------------------------------------------------------
------------------------------------------------------------------



VERSE, GUITAR ONE
D||-------------------------------||--------------------------------
A||:-----------------------------:||--------------------------------
F||--11----7-6-4---11--11/16-16---||--11---7-6-4---11-7-6-4---------
C||---X----X-X-X----X---X/-X--X---||---X---X-X-X----X-X-X-X---------
G||:--9----5-4-2----9---9/14-14--:||---9---5-4-2----9-5-4-2---------
D||-------------------------------||--------------------------------



VERSE, GUITAR TWO
D||-------------------------------||--------------------------------
A||:-----------------------------:||--------------------------------
F||-------------------------------||--------------------------------
C||---9----8-7-5----9--9/12-12----||--9--8-7-5------9---8-7-5-------
G||:--X----X-X-X----X--X/-X--X---:||--X--X-X-X------X---X-X-X-------
D||---7----6-5-3----7--7/10-10----||--7--6-5-3------7---6-5-3-------



VERSE ENDING, BOTH GUITARS
d|------------------------
A|------------------------
F|-------------------5--3-
C|-------------------5--3-
G|--4-4-4------------3--1-
D|--2-2-2--2^3^2^0^1------



FINAL CHORUS
d|-------0-------0-------0-------0-------0-------0-------0-------0-------0-------0-------0-----
A|----10------10------10------10------10------10------10------10------11------11------11-------
F|---------------------------------------------------------------------------------------------
C|-12------12-----12------12------12------12------12------12------12------12------12-----------
G|---------------------------------------------------------------------------------------------
D|---------------------------------------------------------------------------------------------



FINAL CHORUS
d|-------0-------0-------0-------0-------0-------0-------0-------0-------0--------0------0-----
A|----11------10------10------10------10------10------10------10------10-------11-----11-------
F|---------------------------------------------------------------------------------------------
C|-12------12------12------12------12------12------12------12------12-------12------12---------
G|---------------------------------------------------------------------------------------------
D|---------------------------------------------------------------------------------------------



FINAL CHORUS
d|-------0--------0----7-----7------7-----7------5------5-----5-----3--------------------------
A|----11-------11--------7-----7------7-----7------5------5-----5-----3--3---------------------
F|-------------------9-----9-----9------9------7------6-----6-----4------2---------------------
C|-12-------12-----------------------------------------------------------0---------------------
G|---------------------------------------------------------------------------------------------
D|---------------------------------------------------------------------------------------------



FINAL CHORUS
d|---7-----7------7-----7------5------5-----5-----3-----------------------------------------
A|-----7-----7------7-----7------5------5-----5-----3--3---4-4-4----------------------------
F|-9-----9-----9------9------7------6-----6-----4------2---4-4-4----------------------------
C|-----------------------------------------------------0---2-2-2--2^3^2^0^1---5----3----2---
G|----------------------------------------------------------------------------5----3----2---
D|----------------------------------------------------------------------------3----1----0---




            
            
Suggest correction
Creating personal tab
Creating personal tab
You can edit any tab online and save it as your Personal.

You can edit, replace or remove any tab part or add personal notes – all changes will be seen only by you.

Personal tabs can be accessed anytime from any device, even offline.
Learn more »
Give kudos to tab author, rate the tab!
1 2 3 4 5
There is a new version of this tab from 6 days ago which you may like more. Go check it out:
comments
print report bad tab
guest
You may want to rate the tab now too:
select rating
Wanna post a correction for this tab? Suggest correction