Oops, an error
Loading. Please wait.

Spirit bass

version 1
version 1

Whole song

Interactive

by Ghost
2,611 views 15 this week
no commentswrite comment
1 2 3 4 5
x 4
add to favorites
×
Save as Personal and add changes to this tab that will be seen only by you. Learn more ›
×
You can save this tab as Personal to edit and correct it or add notes. All changes will be seen only by you. Learn more »
launch autoscroll
font size
0
reset
guitar tuner
backing track
0:00
0:00
edit
Autoscroll
slow
fast
+/-
esc
set tempo
stop
G|------------------------------------------------------------------|
D|o-----------------------------------------------------------------|
A|------------------------------------------------------------------|
D|o-2---------------------------------------------------------------|
B|----------------------------------1-------------------------------|
    1 + 2 + 3 + 4 + 1 + 2 + 3 + 4 + 1 + 2 + 3 + 4 + 1 + 2 + 3 + 4 +

G|------------------------------------------------------------------|
D|-----------------------------------------------------------------o|
A|------------------------------------------------------------------|
D|-5---------------1---------------2-------------------------------o|
B|------------------------------------------------------------------|
   1 + 2 + 3 + 4 + 1 + 2 + 3 + 4 + 1 + 2 + 3 + 4 + 1 + 2 + 3 + 4 +

Rest

0:48
G|-------------------------------------------------------------------|
D|o-----------------------------------------------------------------o|
A|o-0-0-----------------------------0-0-----------------------------o|
D|-------------------------------------------------------------------|
    1 + 2 + 3 + 4 + 1 + 2 + 3 + 4 + 1 + 2 + 3 + 4 + 1 + 2 + 3 + 4 +

0:58
G|-----------------------------------------------------|
D|-----------------------------------------------------|
A|-0-0---------12-12-\-------0-0---------12-12-\-------|
D|-----------------------------------------------------|
   1 2 3 4 5 6 1  2  3 4 5 6 1 2 3 4 5 6 1  2  3 4 5 6

G|-------------------------------------------------------|
D|-------------------------------------------------------|
A|-0-0---------12-12-\-------0-0---------12-12-12-12-\---|
D|-------------------------------------------------------|
   1 2 3 4 5 6 1  2  3 4 5 6 1 2 3 4 5 6 1  2  3  4  5 6

Verse 1:05
G|--------------------------------------------------------------------------------------------------|
D|--------------------------------------------------------------------------------------------------|
A|-0---0-0-0-0-0---0-0-0-0-0---0-0-0-0-0---0-0-0-0--------------------------------------------------|
D|-------------------------------------------------3---3-3-3-3-3---3-3-3-3-3---3/10---3-3---3---3-3-|
   1 2 3 4 5 6 1 2 3 4 5 6 1 2 3 4 5 6 1 2 3 4 5 6 1 2 3 4 5 6 1 2 3 4 5 6 1 2 3 4  5 6 1 2 3 4 5 6 

G|-------------------------------------------------------------------------------------------------|
D|-------------------------------------------------------------------------7-----------------------|
A|-3---3-3-3-3-3---3-3-3-3-----------------------------------------------------7-----------5-------|
D|-------------------------6---6-6-6-6-6---6-6-6-6-7---7-7-7-7-7---7-7-7-7---------7---5-------5---|
   1 2 3 4 5 6 1 2 3 4 5 6 1 2 3 4 5 6 1 2 3 4 5 6 1 2 3 4 5 6 1 2 3 4 5 6 1 2 3 4 5 6 1 2 3 4 5 6 

G|-------------------------------------------------|
D|-------------------------------------------------|
A|-0---0-0-0-0-0---0-0-0-0-0---0-0-0-0-0---0---0-0-|
D|-------------------------------------------------|
   1 2 3 4 5 6 1 2 3 4 5 6 1 2 3 4 5 6 1 2 3 4 5 6

1:26
G|--------------------------------------------------------------------------------------------------|
D|--------------------------------------------------------------------------------------------------|
A|-0---0-0-0-0-0---0-0-0-0-0---0-0-0-0-0---0-0-0-0--------------------------------------------------|
D|-------------------------------------------------3---3-3-3-3-3---3-3-3-3-3---3/10---3-3---3---3-3-|
   1 2 3 4 5 6 1 2 3 4 5 6 1 2 3 4 5 6 1 2 3 4 5 6 1 2 3 4 5 6 1 2 3 4 5 6 1 2 3 4  5 6 1 2 3 4 5 6 

G|-------------------------------------------------------------------------------------------------|
D|-------------------------------------------------------------------------7-----------------------|
A|-3---3-3-3-3-3---3-3-3-3-----------------------------------------------------7-----------5-------|
D|-------------------------6---6-6-6-6-6---6-6-6-6-7---7-7-7-7-7---7-7-7-7---------7---5-------5---|
   1 2 3 4 5 6 1 2 3 4 5 6 1 2 3 4 5 6 1 2 3 4 5 6 1 2 3 4 5 6 1 2 3 4 5 6 1 2 3 4 5 6 1 2 3 4 5 6 

G|-------------------------------------------------------------------------------------------------|
D|-------------------------7---------------------------7-------------------7-7-7-7-7-7-------------|
A|-----------------------------7-----------5---------7---------------------------------------------|
D|-7---7-7-7-7-7---7-7-7-7---------7---5-------5---7-----7-7-7-7---7-7-7-7-------------7-----7-----|
   1 2 3 4 5 6 1 2 3 4 5 6 1 2 3 4 5 6 1 2 3 4 5 6 1 2 3 4 5 6 1 2 3 4 5 6 1 2 3 4 5 6 1 2 3 4 5 6 

Chorus 1:50
G|-------------------------------------------------------------------------------------------------|
D|-------------------------------------------------------------------------------------------------|
A|-------------------------------------------------------------------------------------------------|
D|-0---0-0-0-0/8---8-8-8-8\0---0-0-0-0-5-----8-----0---0-0-0-0/8---8-8-8-8\0---0-0-0-0-5-----8-----|
   1 2 3 4 5 6 1 2 3 4 5 6 1 2 3 4 5 6 1 2 3 4 5 6 1 2 3 4 5 6 1 2 3 4 5 6 1 2 3 4 5 6 1 2 3 4 5 6 

G|------------------------------------------------------------------------/7-7-7-5-7-7-------------|
D|-------------------------------------------------------------------------------------5-----8-----|
A|-------------------------------------------------------------------------------------------------|
D|-0---0-0-0-0/8---8-8-8-8\0---0-0-0-0-5-----8-----0---0-0-0-0/8---8-8-8-8-------------------------|
   1 2 3 4 5 6 1 2 3 4 5 6 1 2 3 4 5 6 1 2 3 4 5 6 1 2 3 4 5 6 1 2 3 4 5 6 1 2 3 4 5 6 1 2 3 4 5 6 

Rest

Verse 2:08
G|-------12-14-12------------------------------------------------------------------------|
D|----14----------14---------------------------------------------------------------------|
A|-14----------------14-14-14-14-14-14-14-14-14-14-14-14-14-14-14-14-14-14-14-14-7-7-2-2-|
D|---------------------------------------------------------------------------------------|
   1  2  3  4  5  6  1  2  3  4  5  6  1  2  3  4  5  6  1  2  3  4  5  6  1  2  3 4 5 6

G|-------------------------------------------------------------------------------------------------|
D|-------------------------------------------------------------------------7-----------------------|
A|-3---3-3-3-3-3---3-3-3-3-----------------------------------------------------7-----------5-------|
D|-------------------------6---6-6-6-6-6---6-6-6-6-7---7-7-7-7-7---7-7-7-7---------7---5-------5---|
   1 2 3 4 5 6 1 2 3 4 5 6 1 2 3 4 5 6 1 2 3 4 5 6 1 2 3 4 5 6 1 2 3 4 5 6 1 2 3 4 5 6 1 2 3 4 5 6 

G|-------------------------------------------------|
D|-------------------------------------------------|
A|-0---0-0-0-0-0---0-0-0-0-0---0-0-0-0-0---0---0-0-|
D|-------------------------------------------------|
   1 2 3 4 5 6 1 2 3 4 5 6 1 2 3 4 5 6 1 2 3 4 5 6

G|--------------------------------------------------------------------------------------------------|
D|--------------------------------------------------------------------------------------------------|
A|-0---0-0-0-0-0---0-0-0-0-0---0-0-0-0-0---0-0-0-0--------------------------------------------------|
D|-------------------------------------------------3---3-3-3-3-3---3-3-3-3-3---3/10---3-3---3---3-3-|
   1 2 3 4 5 6 1 2 3 4 5 6 1 2 3 4 5 6 1 2 3 4 5 6 1 2 3 4 5 6 1 2 3 4 5 6 1 2 3 4  5 6 1 2 3 4 5 6 

G|-------------------------------------------------------------------------------------------------|
D|-------------------------------------------------------------------------7-----------------------|
A|-3---3-3-3-3-3---3-3-3-3-----------------------------------------------------7-----------5-------|
D|-------------------------6---6-6-6-6-6---6-6-6-6-7---7-7-7-7-7---7-7-7-7---------7---5-------5---|
   1 2 3 4 5 6 1 2 3 4 5 6 1 2 3 4 5 6 1 2 3 4 5 6 1 2 3 4 5 6 1 2 3 4 5 6 1 2 3 4 5 6 1 2 3 4 5 6 

G|-------------------------------------------------------------------------------------------------|
D|-------------------------7---------------------------7-------------------7-7-7-7-7-7-------------|
A|-----------------------------7-----------5---------7---------------------------------------------|
D|-7---7-7-7-7-7---7-7-7-7---------7---5-------5---7-----7-7-7-7---7-7-7-7-------------7-----7-----|
   1 2 3 4 5 6 1 2 3 4 5 6 1 2 3 4 5 6 1 2 3 4 5 6 1 2 3 4 5 6 1 2 3 4 5 6 1 2 3 4 5 6 1 2 3 4 5 6 

Chorus 2:50
G|-------------------------------------------------------------------------------------------------|
D|-------------------------------------------------------------------------------------------------|
A|-----------------------------------------------------------------------------5-------------------|
D|-0---0-0-0-0/8---8-8-8-8\0---0-0-0-0-5-----8-----0---0-0-0-0/8---8-8-8-8\0-----8-7-7-5-----8-----|
   1 2 3 4 5 6 1 2 3 4 5 6 1 2 3 4 5 6 1 2 3 4 5 6 1 2 3 4 5 6 1 2 3 4 5 6 1 2 3 4 5 6 1 2 3 4 5 6 

G|------------------------------------------------------------------------/7-7-7-5-7-7-------------|
D|-------------------------------------------------------------------------------------5-----8-----|
A|-------------------------------------------------------------------------------------------------|
D|-0---0-0-0-0/8---8-8-8-8\0---0-0-0-0-5-----8-----0---0-0-0-0/8---8-8-8-8-------------------------|
   1 2 3 4 5 6 1 2 3 4 5 6 1 2 3 4 5 6 1 2 3 4 5 6 1 2 3 4 5 6 1 2 3 4 5 6 1 2 3 4 5 6 1 2 3 4 5 6 

Solo 3:04
G|-------------------------------------------------------------------------------------------------|
D|-------7-----------------------7-----------------------7-----------------------7-----------------|
A|---------7-----------------------7-----------------------7-----------------------7---------------|
D|-0---0-----7-8---8---8-8-0---0-----7-5-----8-----0---0-----7-8---8---8-8-0---0-----7-5-----8-----|
   1 2 3 4 5 6 1 2 3 4 5 6 1 2 3 4 5 6 1 2 3 4 5 6 1 2 3 4 5 6 1 2 3 4 5 6 1 2 3 4 5 6 1 2 3 4 5 6 

G|-------------------------------7-5---------------------------------------------------------------|
D|-------7---------------------------7-5-----------------------------------------------------------|
A|---------7-----------------------------8-7-5-3-1/5---5-5-\---1----1--0---------------------------|
D|-0---0-----7-8---8---8-8-0---0-----------------------------------------5-0-----0-----5-----8-----|
   1 2 3 4 5 6 1 2 3 4 5 6 1 2 3 4 5 6 1 2 3 4 5 6 1 2 3 4 5 6 1 2 3 4 5 6 1 2 3 4 5 6 1 2 3 4 5 6 

3:20
G|-------------------------------------------------------------------------------------------------|
D|-------------------------------------------------------------------------------------------------|
A|-3---3---3-3-3---3---3-3---------------------------------5---------------------5-3---------------|
D|-------------------------5---5---5-5-5---5---5-5-0---7-------8---8---8---0---------8-7-5-7-8-----|
   1 2 3 4 5 6 1 2 3 4 5 6 1 2 3 4 5 6 1 2 3 4 5 6 1 2 3 4 5 6 1 2 3 4 5 6 1 2 3 4 5 6 1 2 3 4 5 6 

G|-------------------------------------------------------------------------------------------------|
D|-------------------------------------------------------------------------------------------------|
A|-3---3---3-3-3---3---3-3-------------------------------5-----------------1-1-1-1-3-1-0-----3-----|
D|-------------------------5---5---5-5-5---5---5-5-0---0---7-5-3---3---3-3-------------------------|
   1 2 3 4 5 6 1 2 3 4 5 6 1 2 3 4 5 6 1 2 3 4 5 6 1 2 3 4 5 6 1 2 3 4 5 6 1 2 3 4 5 6 1 2 3 4 5 6 

G|-------------------------------------------------|
D|-------------------------------------------------|
A|-------------------------------------------------|
D|-4-----------------------3-----------------------|
   1 2 3 4 5 6 1 2 3 4 5 6 1 2 3 4 5 6 1 2 3 4 5 6

3:40
G|-----------------------------------------------5-------------------------------------------------|
D|-7-7-7-7-7-7-----5-7-5-----------5-7-------5-7---4-4-4-4-4-4-4-4-4-4-4-4-3-3-3-3-3-3-3-3-3-3-3-3-|
A|-------------5-7-------5-3-3-3-5-----5-7-8-------------------------------------------------------|
D|-------------------------------------------------------------------------------------------------|
   1 2 3 4 5 6 1 2 3 4 5 6 1 2 3 4 5 6 1 2 3 4 5 6 1 2 3 4 5 6 1 2 3 4 5 6 1 2 3 4 5 6 1 2 3 4 5 6 

G|-------12-14-12----------12-14-12----14--------------------------|
D|-12-14----------14-12-14----------14------14---11----------------|
A|----------------------------------------------------12-----------|
D|-----------------------------------------------------------------|
   1  2  3  4  5  6  1  2  3  4  5  6  1  2 3  4 5  6 1  2 3 4 5 6 

INterlude 3:51
G|-------------------------------------------------------------------------------------------------|
D|-------------------------------------------------------------------------------------------------|
A|-0---0-0-0-0-0---0-0-0-0-0---0-0-0-0-0---0-0-0-0-0---0-0-0-0-0---0-0-0-0-0---0-0-0-0-0---0-0-0-0-|
D|-------------------------------------------------------------------------------------------------|
   1 2 3 4 5 6 1 2 3 4 5 6 1 2 3 4 5 6 1 2 3 4 5 6 1 2 3 4 5 6 1 2 3 4 5 6 1 2 3 4 5 6 1 2 3 4 5 6 

Verse 3:59
G|--------------------------------------------------------------------------------------------------|
D|--------------------------------------------------------------------------------------------------|
A|-0---0-0-0-0-0---0-0-0-0-0---0-0-0-0-0---0-0-0-0--------------------------------------------------|
D|-------------------------------------------------3---3-3-3-3-3---3-3-3-3-3---3-10-\---3---3---3-3-|
   1 2 3 4 5 6 1 2 3 4 5 6 1 2 3 4 5 6 1 2 3 4 5 6 1 2 3 4 5 6 1 2 3 4 5 6 1 2 3 4  5 6 1 2 3 4 5 6 

G|-------------------------------------------------------------------------------------------------|
D|-----------------------------------------------------------------------------5-7-5---------------|
A|-3---3-3-3-3-3---3-3-3-3-------------------------------------------------5-7-------7-----5-------|
D|-------------------------6---6-6-6-6-6---6-6-6-6-7---7-7-7-7-7---7-7-\---------------5-------5---|
   1 2 3 4 5 6 1 2 3 4 5 6 1 2 3 4 5 6 1 2 3 4 5 6 1 2 3 4 5 6 1 2 3 4 5 6 1 2 3 4 5 6 1 2 3 4 5 6 

G|-------------------------------------------------------------------------------------7-----6-\---|
D|-----------------------------------------------------7-------------------7-7-7-7-7-7-------------|
A|-----------------------------------------5---------7---------------------------------------------|
D|-7-----7-7-7-7---7-7-7-7-7---7-7-7-7-5-------5---7-----7-7-7-7---7-7-7-7-------------------------|
   1 2 3 4 5 6 1 2 3 4 5 6 1 2 3 4 5 6 1 2 3 4 5 6 1 2 3 4 5 6 1 2 3 4 5 6 1 2 3 4 5 6 1 2 3 4 5 6 

Chorus 4:23
G|-------------------------------------------------------------------------------------------------|
D|-------------------------------------------------------------------------------------------------|
A|-------------------------------5-----------------------------------------------5-----------------|
D|-0---0-0-0-0/8---8-8-8-8\0---0---8-7-5-----8-----0---0-0-0-0/8---8-8-8-8\0---0---8-7-5-----8-----|
   1 2 3 4 5 6 1 2 3 4 5 6 1 2 3 4 5 6 1 2 3 4 5 6 1 2 3 4 5 6 1 2 3 4 5 6 1 2 3 4 5 6 1 2 3 4 5 6 

G|------------------------------------------------------------------------/7-7-7-5-7-7-------------|
D|-------------------------------------------------------------------------------------5-----8-----|
A|-------------------------------5-----------------------------------------------------------------|
D|-0---0-0-0-0/8---8-8-8-8\0---0---8-7-5-----8-----0---0-0-0-0/8---8-8-8-8-------------------------|
   1 2 3 4 5 6 1 2 3 4 5 6 1 2 3 4 5 6 1 2 3 4 5 6 1 2 3 4 5 6 1 2 3 4 5 6 1 2 3 4 5 6 1 2 3 4 5 6 

4:38
G|-------------5---5-------------------------------------------------------------------------------|
D|-------5---5---------5---------------5---5-------------------------------------------------------|
A|-3---3---3---------3---3-------5---5---------5---------5-5-5-------5-----------3-5-3-------------|
D|-------------------------5---5---5---------5---5-0---0-------8---8---8-8-0---0-------5-----8-----|
   1 2 3 4 5 6 1 2 3 4 5 6 1 2 3 4 5 6 1 2 3 4 5 6 1 2 3 4 5 6 1 2 3 4 5 6 1 2 3 4 5 6 1 2 3 4 5 6 

G|-------------5-5-5-------------------------------------------------------------------------------|
D|-------5---5---------5---------------5-5-5-------------------------------------------------------|
A|-3---3---3---------3---3-------5---5---------5---------5-----------------1---1-1-----0-----3-----|
D|-------------------------5---5---5---------5---5-0---0---8-7-3---3---3-3-------------------------|
   1 2 3 4 5 6 1 2 3 4 5 6 1 2 3 4 5 6 1 2 3 4 5 6 1 2 3 4 5 6 1 2 3 4 5 6 1 2 3 4 5 6 1 2 3 4 5 6 

Outro 4:54
G|-------------------------------------------------------------------------------------------------|
D|-------7-----------------------7-----------------------7-----------------------7-----------------|
A|---------7-----------------------7-----------------------7-----------------------7---------------|
D|-0---0-----7-8---8---8-8-0---0-----7-5-----8-----0---0-----7-8---8---8-8-0---0-----7-5-----8-----|
   1 2 3 4 5 6 1 2 3 4 5 6 1 2 3 4 5 6 1 2 3 4 5 6 1 2 3 4 5 6 1 2 3 4 5 6 1 2 3 4 5 6 1 2 3 4 5 6 

G|-------14-----------------------------14-------------------|
D|----------14-----------------------------14----------------|
A|-------------12-13---13---13-13-------------12-------------|
D|-0---0--------------------------0---0----------5-----8-----|
   1 2 3 4  5  6  1  2 3  4 5  6  1 2 3 4  5  6  1 2 3 4 5 6

G|-------14-----------------------------------------------------|
D|----------14--------------------12-12-12-10-12-12-------------|
A|-------------12-13---13---13-13-------------------------------|
D|-0---0--------------------------------------------5-----8-----|
   1 2 3 4  5  6  1  2 3  4 5  6  1  2  3  4  5  6  1 2 3 4 5 6
Tabbed by Dave Vucko

            
            
Suggest correction
Creating personal tab
Creating personal tab
You can edit any tab online and save it as your Personal.

You can edit, replace or remove any tab part or add personal notes – all changes will be seen only by you.

Personal tabs can be accessed anytime from any device, even offline.
Learn more »
comments
print report bad tab
guest
You may want to rate the tab now too:
select rating
Wanna post a correction for this tab? Suggest correction