Oops, an error
Loading. Please wait.

Spirit tab

version 1
version 1

Whole song

Interactive

by Ghost
2,719 views 48 this week
no commentswrite comment
1 2 3 4 5
x 4
add to favorites
×
Save as Personal and add changes to this tab that will be seen only by you. Learn more ›
×
You can save this tab as Personal to edit and correct it or add notes. All changes will be seen only by you. Learn more »
launch autoscroll
font size
0
reset
how to read this tab
guitar tuner
backing track
0:00
0:00
edit
Autoscroll
slow
fast
+/-
esc
set tempo
stop
Spirit

Standard Tuning, but tuned down one whole step


[INTRO]
repeat ‘til verse parts begin
d||-------------------------------------------------------------------||
A||:-----------------------------------------------------------------:||
F||-------------------------------------------------------------------||
C||--pm---------------------------------------------------------------||
G||:-===============================================================-:||
D||--7-7-7-7-7-7-7-7-7-7-7-7-7-7-7-7-7-7-7-7-7-7-7-7-7-7-7-7-7-7-7-7--||


[Verse]

d|-------------------------------------------------------------------------------------------|
A|-------------------------------------------------------------------------------------------|
F|-----------------------------------------------------------------------7---7---7---7-------|
C|----9---9---9---9---9---9---9---9----5---5---5---5---5---5----5-5-5-5--7-=-7-=-7-=-7-=-----|
G|----9-=-9-=-9-=-9-=-9-=-9-=-9-=-9-=--5-=-5-=-5-=-5-=-5-=-5-=--5-5-5-5----5---5---5---5-----|
D|------7---7---7---7---7---7---7---7----3---3---3---3---3---3--3-3-3-3----------------------|

d|-----------------------------------------------------------------------------------------|
A|-----------------------------------------------------------------------------------------|
F|--------------------------------------------9--------------------------------------------|
C|--8---8---8---8----9---9---9---9---9---9----7-9-9--9---9---9---9---9---9----9-9-9-9-9----|
G|--8-=-8-=-8-=-8-=--9-=-9-=-9-=-9-=-9-=-9-=----7-7--9-=-9-=-9-=-9-=-9-=-9-=--9-9-9-9-9----|
D|----6---6---6---6----7---7---7---7---7---7-----------7---7---7---7---7---7--7-7-7-7-7----|

d|-------------------------------------------------------------------------------------------|
A|-------------------------------------------------------------------------------------------|
F|-----------------------------------------------------------------------7---7---7---7-------|
C|----9---9---9---9---9---9---9---9----5---5---5---5---5---5----5-5-5-5--7-=-7-=-7-=-7-=-----|
G|----9-=-9-=-9-=-9-=-9-=-9-=-9-=-9-=--5-=-5-=-5-=-5-=-5-=-5-=--5-5-5-5----5---5---5---5-----|
D|------7---7---7---7---7---7---7---7----3---3---3---3---3---3--3-3-3-3----------------------|

d|-----------------------------------------------------------------------------------------|
A|-----------------------------------------------------------------------------------------|
F|--------------------------------------------9-------------------------------9------------|
C|--8---8---8---8----9---9---9---9---9---9----7-9-9--9---9---9---9---9---9----7-9-9--------|
G|--8-=-8-=-8-=-8-=--9-=-9-=-9-=-9-=-9-=-9-=----7-7--9-=-9-=-9-=-9-=-9-=-9-=----7-7--------|
D|----6---6---6---6----7---7---7---7---7---7-----------7---7---7---7---7---7---------------|

d|-------------------------|
A|-------------------------|
F|------7------8---8-9-8---|
C|----9------9---9---------|
G|--9------9---------------|
D|-------------------------|


[CHORUS]

d||-----------------------------------------||
A||:---------------------------------------:||
F||-------------5--5-----------------2--5---||
C||---2-2--pm---5--5-------2-2-------2--5---|| x4
G||:--2-2--===--3--3--===--2-2--===--0--3--:||
D||---0-0--0-0--------0-0--0-0--0-0---------||


[Verse]

d|----------------------------------------------------|
A|----------------------------------------------------|
F|----------------------------------------------------|
C|--pm------------------------------------------------|
G|--===============================================---
D|--7-7-7-7-7-7-7-7-7-7-7-7-7-7-7-7-7-7-7-7-7-7-7-7---

d|----------------------------------------------------------------------------------------------|
A|----------------------------------------------------------------------------------------------|
F|-6---6---6---6---6---6---6-6-6-6--7---7---7---7-----------------------------------------------|
C|-6-=-6-=-6-=-6-=-6-=-6-=-6-6-6-6--7-=-7-=-7-=-7-=--8---8---8---8----9---9---9---9---9---9-----|
G|---4---4---4---4---4---4-4-4-4-4----5---5---5---5--8-=-8-=-8-=-8-=--9-=-9-=-9-=-9-=-9-=-9-=---|
D|-----------------------------------------------------6---6---6---6----7---7---7---7---7---7---|

d|---------------------------------------------|
A|---------------------------------------------|
F|-9-------------------------------------------|
C|-7-9-9--9---9---9---9---9---9----9-9-9-9-9---|
G|---7-7--9-=-9-=-9-=-9-=-9-=-9-=--9-9-9-9-9---|
D|----------7---7---7---7---7---7--7-7-7-7-7---|

d|-------------------------------------------------------------------------------------------|
A|-------------------------------------------------------------------------------------------|
F|-----------------------------------------------------------------------7---7---7---7-------|
C|----9---9---9---9---9---9---9---9----5---5---5---5---5---5----5-5-5-5--7-=-7-=-7-=-7-=-----|
G|----9-=-9-=-9-=-9-=-9-=-9-=-9-=-9-=--5-=-5-=-5-=-5-=-5-=-5-=--5-5-5-5----5---5---5---5-----|
D|------7---7---7---7---7---7---7---7----3---3---3---3---3---3--3-3-3-3----------------------|

d|-----------------------------------------------------------------------------------------|
A|-----------------------------------------------------------------------------------------|
F|--------------------------------------------9-------------------------------9------------|
C|--8---8---8---8----9---9---9---9---9---9----7-9-9--9---9---9---9---9---9----7-9-9--------|
G|--8-=-8-=-8-=-8-=--9-=-9-=-9-=-9-=-9-=-9-=----7-7--9-=-9-=-9-=-9-=-9-=-9-=----7-7--------|
D|----6---6---6---6----7---7---7---7---7---7-----------7---7---7---7---7---7---------------|

d|-------------------------|
A|-------------------------|
F|------7------8---8-9-8---|
C|----9------9---9---------|
G|--9------9---------------|
D|-------------------------|


[CHORUS]

d||-----------------------------------------||
A||:---------------------------------------:||
F||-------------5--5-----------------2--5---||
C||---2-2--pm---5--5-------2-2-------2--5---|| x4
G||:--2-2--===--3--3--===--2-2--===--0--3--:||
D||---0-0--0-0--------0-0--0-0--0-0---------||


[SOLO]
GUITAR ONE
d|-------------------------------------------------------------------|
A|-0^12-12-12--0^12-12-12-10-10-10-10--0^12-12-12--0^12-12-12----8---|
F|-0^12-12-12--0^12-12-12-11-11-11-11--0^12-12-12--0^12-12-12--9-9---|
C|------------------------------------------------------------10-----|
G|-------------------------------------------------------------------|
D|-------------------------------------------------------------------|

d|-------------------------------------------------------------------|
A|-0^12-12-12--0^12-12-12-10-10-10-10--0^12-12-12--0^12-12-12----8---|
F|-0^12-12-12--0^12-12-12-11-11-11-11--0^12-12-12--0^12-12-12--9-9---|
C|------------------------------------------------------------10-----|
G|-------------------------------------------------------------------|
D|-------------------------------------------------------------------|

d|-----------------10-8-7----------------------12-15^12----14-14-12-------------------------|
A|-/12-10-12^10-8---------10-8-7------------12----------12----------15-13-12----------------|
F|-------------------------------9-7-----12----------------------------------------7--------|
C|-----------------------------------10------------------------------------------7---7------|
G|-----------------------------------------------------------------------------5------------|
D|------------------------------------------------------------------------------------------|

d|--------------------------------------------------------------12-10-8-7---------------------|
A|-8------7-------------7---7-8^7^8-10^8^10-10/17-15-10--10/12------------10-8-7--------------|
F|---7----------7^9^7^9---9------------------------------------------------------9-7-9\5------|
C|-----7---------------------------------------------------------------------------------5^b5-|
G|--------------------------------------------------------------------------------------------|
D|--------------------------------------------------------------------------------------------|

d|------------------------------------------------------------------------------------------|
A|-5-5-5-5^3-5-7-7--7-7-8-8-8-8--5-5-5-5^3-5-7-7--7-7-8-8-8---7-8-7-------------------------|
F|----------------------------------------------------------9-------7/13--12--pm------------|
C|----------------------------------------------------------------------------===========---|
G|----------------------------------------------------------------------------5-5-5-5-5-5---|
D|------------------------------------------------------------------------------------------|

d|----------------------------------------------------------------------------7----7-9-7-9--|
A|--------------------------------------------------------------7---7-10-7-10---10----------|
F|-pm-----------------=====-=====-7---------4---4-5-4-5-7-5-7-----9-------------------------|
C|-===========--=====-7-7-7-9-7-9-----7-5-7---7---------------------------------------------|
G|-7-7-7-7-7-7--9-9-9-----------------------------------------------------------------------|
D|------------------------------------------------------------------------------------------|

d|-11----11-12-11-12-14-12-14-17-14-17-19----------------|
A|----14----------------------------------17^b17-16------|
F|-------------------------------------------------------|
C|-------------------------------------------------------|
G|-------------------------------------------------------|
D|-------------------------------------------------------|


[SOLO]
GUITAR TWO
d|-0^12-12--12-12-12-12--0^12-12--5-8---0^12-12--12-12-12-12--0^12-12--5-8--/15-14-15^14-12-|
A|-0^12-12--10-10-10-10--0^12-12--5-8---0^12-12--10-10-10-10--0^12-12--5-8------------------|
F|------------------------------------------------------------------------------------------|
C|------------------------------------------------------------------------------------------|
G|------------------------------------------------------------------------------------------|
D|------------------------------------------------------------------------------------------|

d|-19-17-15--------------------------------------------10-8-7-----------------------15--------|
A|----------19-17-15------------------12-17^12----15----------8------------15----------15-----|
F|-------------------17----14------12----------12---------------7-------14----14-12-------14--|
C|----------------------14------14-----------------------------------12-----------------------|
G|--------------------------------------------------------------------------------------------|
D|--------------------------------------------------------------------------------------------|

d|-14---------------------------------12----12----/15-14---------19----15-14----------------|
A|------12-13-12^13----12-13-15-13-15----15--------------15-17------17-------17-------------|
F|------------------14----------------------------------------------------------16-14-------|
C|------------------------------------------------------------------------------------17-16-|
G|------------------------------------------------------------------------------------------|
D|------------------------------------------------------------------------------------------|

d|-------------------0^12-12--0^12-12-12-12-12-12-0^12-12-----------------------------------|
A|-------------------0^12-12--0^12-12-11-11-11-11-0^12-12----10-12-10-----------------------|
F|--------------------------------------------------------12----------11---11/16------------|
C|-17-14----9^b9----------------------------------------------------------------------------|
G|------------------------------------------------------------------------------------------|
D|------------------------------------------------------------------------------------------|

d|--------------------------------------------------------------------------------------------|
A|--------------------------------------------------------------------------------------------|
F|-pm----------------------=================-2-----------------------------------7---7-9-7-9--|
C|-=======================-0-0-0-2-2-2-4-4-4------------------4---4-7-4-7--9-7-9---9----------|
G|-2-2-2-2-2-2-4-4-4-4-4-4------------------------5-4-5-7-5-7---7-----------------------------|
D|--------------------------------------------------------------------------------------------|

d|----------------------------------------------14-------------|
A|-7---7---12----12-14----14-16-14-16-17-16-17-----14^b14-12---|
F|---9--------11-------16--------------------------------------|
C|-------------------------------------------------------------|
G|-------------------------------------------------------------|
D|-------------------------------------------------------------|


[Break]
(play until organ and vocals come in)
d||----------------------------||
A||:--------------------------:||
F||----------------------------||
C||--pm------------------------||
G||:-=--====================--:||
D||--7--7-7-7-7-7--7-7-7-7-7---||


[VERSE THREE]

d|------------------------------------------------------------------------------------------|
A|------------------------------------------------------------------------------------------|
F|------------------------------------------------------------------------------------------|
C|--------pm---------------------------------------------------------------------5-5-5-5----|
G|-----=--==========================================--=--======================--5-5-5-5----|
D|-----7--7-7-7-7-7--7-7-7-7-7--7-7-7-7-7--7-7-7-7-7--3--3-3-3-3-3--3-3-3-3-3-3--3-3-3-3----|

d|------------------------------------------------------------------------------------------|
A|------------------------------------------------------------------------------------------|
F|-pm-----------------------------------------------------------------------------9---------|
C|-=====================----------------------------------------------9-----9-----7-9-9-----|
G|-5-5-5-5-5-5-5-5-5-5-5-=====================--=====================-9-===-9-===---7-7-----|
D|-----------------------6-6-6-6-6-6-6-6-6-6-6--7-7-7-7-7-7-7-7-7-7-7---7-7---7-7-----------|

d|--------------------------------------------------------------------|
A|--------------------------------------------------------------------|
F|--------------------------9-----------7--------8---8-9-8------------|
C|-9---9---9---9---9---9----7-9-9-----9--------9---9------------------|
G|-9-=-9-=-9-=-9-=-9-=-9-=----7-7---9--------9------------------------|
D|---7---7---7---7---7---7--------------------------------------------|


[CHORUS]

d||-----------------------------------------||
A||:---------------------------------------:||
F||-------------5--5-----------------2--5---||
C||---2-2--pm---5--5-------2-2-------2--5---||x4
G||:--2-2--===--3--3--===--2-2--===--0--3--:||
D||---0-0--0-0--------0-0--0-0--0-0---------||


[Outro]

d|-----------------------------------------------|
A|-----------------------------------------------|
F|----7----2------------5-5----------------2-5---|
C|----7----2--2-2-------5-5-------2-2------2-5---|
G|----5----0--2-2--===--3-3--===--2-2--===-0-3---|
D|----5----0--0-0--0-0-------0-0--0-0--0-0-------|

d|---------------------------------------------------|
A|------------------------------------------------3--|
F|----7----2--------------------------5---------4-2--|
C|----7----2----2-----------4---------5-=======-4-0--|
G|----5----0----2--=======--4-=======-3-3-3-3-3-2-0--|
D|----5----0----0--0-0-0-0--2-2-2-2-2----------------|


[OUTRO]
GUITAR ONE
d|---0-12-12-12-^0^12-12-12-12-12---0-12-12-12-^0^12--5--8---|
A|---0-12-12-12-^0^12-10-10-10-10---0-12-12-12-^0^12--5--8---|
F|-----------------------------------------------------------|
C|-----------------------------------------------------------|
G|-----------------------------------------------------------|
D|-----------------------------------------------------------|

d|---0-12-12-12-^0^12-12-12-12-12---0-12-12-12-^0^12--5--8---|
A|---0-12-12-12-^0^12-10-10-10-10---0-12-12-12-^0^12--5--8---|
F|-----------------------------------------------------------|
C|-----------------------------------------------------------|
G|-----------------------------------------------------------|
D|-----------------------------------------------------------|

d|---0-12-12-12-^0^12-12-12-12-12---0-12-12-12-^0^12--5--8---|
A|---0-12-12-12-^0^12-10-10-10-10---0-12-12-12-^0^12--5--8---|
F|-----------------------------------------------------------|
C|-----------------------------------------------------------|
G|-----------------------------------------------------------|
D|-----------------------------------------------------------|

d|---0-12-12-12-^0^12-12-12-12-12---0-12-12-12-^0^12--5--8---|
A|---0-12-12-12-^0^12-10-10-10-10---0-12-12-12-^0^12--5--8---|
F|-----------------------------------------------------------|
C|-----------------------------------------------------------|
G|-----------------------------------------------------------|
D|-----------------------------------------------------------|

[OUTRO]
GUITAR TWO
d|-----------------------------------------|
A|-----------------------------------------|
F|-----------5-5-5-5----------------2--5---|
C|--2-2------5-5-5-5------2-2-------2--5---|
G|--2-2------3-3-3-3------2-2-------0--3---|
D|--0-0-0-0----------0-0--0-0--0-0---------|

d|-----------------------------------------|
A|-----------------------------------------|
F|-----------5-5-5-5----------------2--5---|
C|--2-2------5-5-5-5------2-2-------2--5---|
G|--2-2------3-3-3-3------2-2-------0--3---|
D|--0-0-0-0----------0-0--0-0--0-0---------|

d|-----------------------------------------|
A|-----------------------------------------|
F|-----------5-5-5-5----------------2--5---|
C|--2-2------5-5-5-5------2-2-------2--5---|
G|--2-2------3-3-3-3------2-2-------0--3---|
D|--0-0-0-0----------0-0--0-0--0-0---------|

d|-----------------------------------------|
A|-----------------------------------------|
F|-----------5-5-5-5----------------2--5---|
C|--2-2------5-5-5-5------2-2-------2--5---|
G|--2-2------3-3-3-3------2-2-------0--3---|
D|--0-0-0-0----------0-0--0-0--0-0---------|


************************************

|:     repeat sign
:|     repeat sign
^      hammer-on/pull-off
/      slide up
\      slide down
()     harmonics
x      string mute
^b     bend
qr     Quick Rest
T      tapping
P.M == Palm Mute

************************************

            
            
Suggest correction
Creating personal tab
Creating personal tab
You can edit any tab online and save it as your Personal.

You can edit, replace or remove any tab part or add personal notes – all changes will be seen only by you.

Personal tabs can be accessed anytime from any device, even offline.
Learn more »
comments
print report bad tab
guest
You may want to rate the tab now too:
select rating
Wanna post a correction for this tab? Suggest correction