Oops, an error
Loading. Please wait.

Square Hammer Bass Tab

version 1
version 1

Whole song

Interactive

3,118 views 201 this week
no commentswrite comment
1 2 3 4 5
x 6
add to favorites
launch autoscroll
font size
0
reset
guitar tuner
Autoscroll
slow
fast
+/-
esc
set tempo
stop
Help us to improve Ultimate-Guitar.com Take our survey!
×
Author
Difficulty
Tuning
intermediate
D G C F A D
[Intro]

F|-------------------|
C|-2/14--------------|
G|-------------------|
D|-------------------|

F|-----------------------------------------------------------------------------------------------------|
C|-----------------------------------------------------------------------------------------------------|
G|--7-7-7-7-3-3-3-2-2-2-2-5-5-5-5-5-7-7-7-7-3-3-3-2-2-2-2-5-5-5-5-5-7-7-7-7-3-3-3-2-2-2-2-5-5-5-5-5----|
D|\----------------------------------------------------------------------------------------------------|

F|-9---11-12--11-12----11-12-7---11-12-7----|
C|----------10-----9------------------------|
G|------------------------------------------|
D|------------------------------------------|

[Verse 1] x2

F|---------------------------------------------------------------------------------------------------|
C|---------------------------------------------------------------------------------------------------|
G|--7-7-7-7-3-3-3-2-2-2-2-5-5-5-5-5-7---7-3-3-3-2-2-2-2-5-5-5-5-5-7-7-7-7-3-3-3-2-2-2-2-5-5-5-5-5----|
D|---------------------------------------------------------------------------------------------------|

F|-9---11-12--11-12----11-12-7---11-12-7----|
C|----------10-----9------------------------|
G|------------------------------------------|
D|------------------------------------------|

[Chorus 1]

F|----------------------------------------------------------------------------------------------------|
C|-------------------------------12\------------------------------------------------------------------|
G|--7---7-7-7-7-7-3---3-3---3/10------------------5---5-5-----5---7--7-7-7-7-7-3---3-3-3-3-3-3-3/10---|
D|------------------------3---------3---3-3-3-3-3---------5-7-----------------------------------------|

F|---------------------------------------------------------------------------------------------------|
C|----------------------------------------------------------------12\--------------------------------|
G|--10-10-10-10-10-10\5---5-5-----5---7--7-7-7-7-7-3---3-3---3/10------------------5---5-5-----5-----|
D|----------------------------5-7--------------------------3---------3---3-3-3-3-3---------5-7-------|

F|-------------------------------------------------------------------------|
C|----------------------------------------17----19----17-------------------|
G|--7---7-7-7-7-7-3---3-3-3-3-3-3------17----17----17----17--14-15-17-14---|
D|--------------------------------0-15-------------------------------------|

[Verse 2] x2

F|---------------------------------------------------------------------------------------------------|
C|---------------------------------------------------------------------------------------------------|
G|--7-7-7-7-3-3-3-2-2-2-2-5-5-5-5-5-7---7-3-3-3-2-2-2-2-5-5-5-5-5-7-7-7-7-3-3-3-2-2-2-2-5-5-5-5-5----|
D|\--------------------------------------------------------------------------------------------------|

F|-9---11-12--11-12----11-12-7---11-12-7----|
C|----------10-----9------------------------|
G|------------------------------------------|
D|------------------------------------------|

[Chorus 2]

F|----------------------------------------------------------------------------------------------------|
C|-------------------------------12\------------------------------------------------------------------|
G|--7---7-7-7-7-7-3---3-3---3/10------------------5---5-5-----5---7---7-7-7-7-7-3---3-3-3-3-3-3-3/10--|
D|------------------------3---------3---3-3-3-3-3---------5-7-----------------------------------------|

F|-------------------------------------------------------------------------------------------------|
C|-----------------------------------------------------------------12\-----------------------------|
G|--10-10-10-10-10-10\5---5-5-----5---5-7-7-7-7-7-7-3---3-3---3/10------------------5---5-5-----5--|
D|----------------------------5-7---7-----------------------3---------3---3-3-3-3-3---------5-7----|

F|------------------------------------------------------------------------------------------------------|
C|----------------------------------------17----19----17----------------------------------4-5----4-5----|
G|--7---7-7-7-7-7-3---3-3-3-3-3-3------17----17----17----17--14-15-17-14\------------2-3------5------5--|
D|--------------------------------0-15-----------------------------------5--5------5--------------------|

[During Solos]

F|--------------------------------------------------------------------------------------------------|
C|--------------------------------------------------------------------------------------------------|
G|-7-7-7-7-3-3-3-2-2-2-2-5-5-5-5-5-7-7-7-7-3-3-3-2-2-2-2-5-5-5-5-5-7-7-7-7-3-3-3-2-2-2-2-5-5-5-5-5--|
D|--------------------------------------------------------------------------------------------------|

F|-9---11-12--11-12----11-12-7---11-12-7----|
C|----------10-----9------------------------|
G|------------------------------------------|
D|------------------------------------------|

F|--------------------------------------------------------------------------------------------------|
C|--------------------------------------------------------------------------------------------------|
G|-7-7-7-7-3-3-3-2-2-2-2-5-5-5-5-5-7-7-7-7-3-3-3-2-2-2-2-5-5-5-5-5-7-7-7-7-3-3-3-2-2-2-2-5-5-5-5-5--|
D|--------------------------------------------------------------------------------------------------|

F|-----------------------------|
C|----------------------4-5----|
G|-\12/-------3------5------5--|
D|-----5-----------------------|

[Chorus 3]

F|-----------------------------------------------------------------------------------------------------|
C|-------------------------------12\-------------------------------------------------------------------|
G|--7---7-7-7-7-7-3---3-3---3/10------------------5---5-5-----5---7---7-7-7-7-7-3---3-3-3-3-3-3-3/10---|
D|\----------------------3---------3---3-3-3-3-3---------5-7-------------------------------------------|

F|--------------------------------------------------------------------------------------------------|
C|-----------------------------------------------------------------12\------------------------------|
G|--10-10-10-10-10-10\5---5-5-----5---5-7-7-7-7-7-7-3---3-3---3/10------------------5---5-5-----5---|
D|----------------------------5-7---7-----------------------3---------3---3-3-3-3-3---------5-7-----|


F|---------------------------------------------------------------------------------------------------------|
C|----------------------------------------17----19----17---------------------------------------------------|
G|--7---7-7-7-7-7-3---3-3-3-3-3-3------17----17----17----17--17--17--19-19-19-17-19-19-19-17-19-19-19-17\--|
D|--------------------------------0-15---------------------------------------------------------------------|

[Outro]

F|--------------------------------------------------------------------------------------------------|
C|--------------------------------------------------------------------------------------------------|
G|---------------3---3-3-3-3-3-3-3---------------5---5-5-5-5-5-5-5---------------3---3-3-3-3-3-3-3--|
D|-0-0-0-0-0-0-0-------------------3-3-3-3-3-3-3-------------------0-0-0-0-0-0-0--------------------|

F|-----------------------------------|
C|-----------------------------------|
G|---------------2---2---------------|
D|-3-3-3-3-3-3-3-------5-5-3-3-2-2---|

************************************

| x   Dead note
| g   Grace note
| (n) Ghost note
| h   Hammer-on
| p   Pull-off
| r   Release
| >   Accented note
| t   Tapping
| b   Bend
| br  Bend release
| pb  Pre-bend
| pbr Pre-bend release
| /   Slide up
| \   Slide down
| ~   Vibrato
| s   Slap
| P   Pop
| PM  Palm mute
| TR  Trill
| N   Tremolo

************************************
Suggest correction
comments
print report bad tab
guest
You may want to rate the tab now too:
select rating
Wanna post a correction for this tab? Suggest correction