Oops, an error
Loading. Please wait.

Square Hammer Tab

version 1
version 1

Whole song

Interactive

19,552 views 1,515 this week
3 commentsread comments
1 2 3 4 5
x 13
add to favorites
launch autoscroll
font size
0
reset
how to read this tab
guitar tuner
Autoscroll
slow
fast
+/-
esc
set tempo
stop
Help us to improve Ultimate-Guitar.com Take our survey!
×
Author
Difficulty
Tuning
intermediate
D A D G B E
[Intro]

e|---------------------------------------------------------------------------| (8x)
B|---------------------------------------------------------------------------|
G|---------------------------------------------------------------------------|
D|---------------------------------------------------------------------------|
A|--5--7-8----7-8-----7-8-----7-8--------------------------------------------|
D|----------8------7-------10-----10-----------------------------------------|


[Verse]

              (3x)                             (1x)
e|------------------------------|--------------------------------------------| (2x)
B|------------------------------|--------------------------------------------|
G|--7------3------2------5------|--------------------------------------------|
D|--7-(4x)-3-(3x)-2-(5x)-5-(4x)-|--------------------------------------------|
A|--5------1------0------3------|------5--7-8----7-8-----7-8-----7-8---------|
D|------------------------------|--------------8------7-------10-----10------|
 |*************PM***************|


[Chorus]

e|--------------------------------------------------------------------------------------|
B|--------------------------------------------------------------------------------------|
G|--7---------------10---10-------5---------------7----------------------5--------------|
D|--7-(5x)--8------------10-(5x)--5-(3x)----------7-(5x)-8-------3-------5-(3x)---------|
A|--5-------8-(3x)-8-----8--------3---------0-3---5------8-(6x)--3-(5x)--3--------0-3---|
D|----------8-----8-----------------------5--------------8-------3--------------5-------|

e|----------------------------------------------------------------------------------|
B|----------------------------------------------------------------------------------|
G|--7---------------10---10-------5--------------7-----------------------5----------|
D|--7-(5x)--8------------10-(5x)--5--------------7-(5x)-8-------3---5-3--5----------|
A|--5-------8-(3x)-8-----8--------3-(3x)---0-3---5------8-(6x)--3-3------3----0-3---|
D|----------8-----8----------------------5--------------8-------3-----------5-------|


[Verse]

e|-------------------------------------|
B|-------------------------------------|
G|-------------------------------------|
D|-------------------------------------|
A|--5--7-8----7-8-----7-8-----7-8------|
D|----------8------7-------10-----10---|

              (3x)                             (1x)
e|------------------------------|--------------------------------------------| (2x)
B|------------------------------|--------------------------------------------|
G|--7------3------2------5------|--------------------------------------------|
D|--7-(4x)-3-(3x)-2-(5x)-5-(4x)-|--------------------------------------------|
A|--5------1------0------3------|------5--7-8----7-8-----7-8-----7-8---------|
D|------------------------------|--------------8------7-------10-----10------|
 |*************PM***************|


[Chorus]

e|--------------------------------------------------------------------------------------|
B|--------------------------------------------------------------------------------------|
G|--7---------------10---10-------5---------------7----------------------5--------------|
D|--7-(5x)--8------------10-(5x)--5-(3x)----------7-(5x)-8-------3-------5-(3x)---------|
A|--5-------8-(3x)-8-----8--------3---------0-3---5------8-(6x)--3-(5x)--3--------0-3---|
D|----------8-----8-----------------------5--------------8-------3--------------5-------|

e|----------------------------------------------------------------------------------|
B|----------------------------------------------------------------------------------|
G|--7---------------10---10-------5--------------7-----------------------5----------|
D|--7-(5x)--8------------10-(5x)--5--------------7-(5x)-8-------3---5-3--5----------|
A|--5-------8-(3x)-8-----8--------3-(3x)---0-3---5------8-(6x)--3-3------3----0-3---|
D|----------8-----8----------------------5--------------8-------3-----------5-------|


[Solo]

e|-------------------------------|
B|-------------------------------|
G|----------------10------12-----|
D|--5--5---5-7-8-8---10------10--|
A|--5--5---5-7-8-----10-10-------|
D|--5--5---5-7-8-----10----------|

              (3x)                             (1x)
e|------------------------------|--------------------------------------------|
B|------------------------------|--------------------------------------------|
G|--7------3------2------5------|--------------------------------------------|
D|--7-(4x)-3-(3x)-2-(5x)-5-(4x)-|--------------------------------------------|
A|--5------1------0------3------|------5--7-8----7-8-----7-8-----7-8---------|
D|------------------------------|--------------8------7-------10-----10------|

              (3x)                             (1x)
e|------------------------------|--------------------------------------------|
B|------------------------------|--------------------------------------------|
G|--7------3------2------5------|-----------------10------12-----------------|
D|--7-(4x)-3-(3x)-2-(5x)-5-(4x)-|---5--5---5-7-8-8---10-----10---------------|
A|--5------1------0------3------|---5--5---5-7-8-----10-10-------------------|
D|------------------------------|---5--5---5-7-8-----10----------------------|


[Bridge]

e|-------------------------------------------|
B|-------------------------------------------|
G|-------------------------------------------|
D|-------------------------------------------|
A|--5--7-8----7-8-----7-8-----7-8------------|
D|----------8------7-------10-----10---------|


[Chorus]

e|--------------------------------------------------------------------------------------|
B|--------------------------------------------------------------------------------------|
G|--7---------------10---10-------5---------------7----------------------5--------------|
D|--7-(5x)--8------------10-(5x)--5-(3x)----------7-(5x)-8-------3-------5-(3x)---------|
A|--5-------8-(3x)-8-----8--------3---------0-3---5------8-(6x)--3-(5x)--3--------0-3---|
D|----------8-----8-----------------------5--------------8-------3--------------5-------|

e|----------------------------------------------------------------------------------|
B|----------------------------------------------------------------------------------|
G|--7---------------10---10-------5--------------7-----------------------5----------|
D|--7-(5x)--8------------10-(5x)--5--------------7-(5x)-8-------3---5-3--5----------|
A|--5-------8-(3x)-8-----8--------3-(3x)---0-3---5------8-(6x)--3-3------3----0-3---|
D|----------8-----8----------------------5--------------8-------3-----------5-------|


[Outro]

e|--------------------------------------|
B|--------------------------------------|
G|--7-----------------------5-----------|
D|--7-(5x)--8-------3-------5-(6x)------|
A|--5-------8-(6x)--3-(5x)--3-----------|
D|----------8-------3-------------------|

e|--------------------------------------------------------------|
B|--------------------------------------------------------------|
G|--7-----------------------5---12--10--9--7--------------------|
D|--7-(5x)--8-------3-------5---x---x---x--7--------------------|
A|--5-------8-(6x)--3-(5x)--3---10--8---7--5--------------------|
D|----------8-------3-------------------------------------------|



************************************

| x  Dead note

************************************
Suggest correction
comments
print report bad tab
3 comments total.
+2 reply
samyueru 42 Sep 19, 2016 06:51 PM

Awesome tab dude!

+1 reply
Rynoburgy 10 Sep 25, 2016 09:05 PM

Awesome! Sounds perfect.

+1 reply
race5144 10 Oct 09, 2016 02:00 AM

Im Loving this song! hopefully that solo's up soon!

guest
You may want to rate the tab now too:
select rating
Wanna post a correction for this tab? Suggest correction