Oops, an error
Loading. Please wait.

Square Hammer Bass Tab

version 2
version 2

Whole song

Interactive

601 views 39 this week
1 commentread comment
1 2 3 4 5
2 more votes to show rating
add to favorites
launch autoscroll
font size
0
reset
guitar tuner
Autoscroll
slow
fast
+/-
esc
set tempo
stop
Help us to improve Ultimate-Guitar.com Take our survey!
×
Author
Difficulty
Tuning
intermediate
D A D G B E


0:07
G|----------------------------------------------------------------------|
D|----------------------------------------------------------------------|
A|-0-3/17-------------------------------------------------------------3-|
D|-----------------------------------------------------------------15\--|
   4 + 1 + 2 + 3 + 4 + 1 + 2 + 3 + 4 + 1 + 2 + 3 + 4 + 1 + 2 + 3 + 4  +

G|-----------------------------------------------------------------|
D|-----------------------------------------------------------------|
A|-5-5-5-5-1-1-1-0-0-0-0-3-3-3-3-3-5-5-5-5-1-1-1-0-0-0-0-3-3-3 3-3-|
D|-----------------------------------------------------------------|
   1 + 2 + 3 + 4 + 1 + 2 + 3 + 4 + 1 + 2 + 3 + 4 + 1 + 2 + 3 + 4 +

G|---------------------------------7---9-10---9-10-----9-10------9-10----|
D|------------------------------------------8------7--------10--------10-|
A|-5-5-5-5-1-1-1-0-0---0-3-3-3-3-3---------------------------------------|
D|-----------------------------------------------------------------------|
   1 + 2 + 3 + 4 + 1 + 2 + 3 + 4 + 1 + 2 +  3 + 4  + 1 + 2  +  3 + 4  +

Verse 0:30
G|------------------------------------------------------------------|
D|o-----------------------------------------------------------------|
A|o-5-5-5-5-1-1-1-0-0-0-0-3-3-3-3-3-5---5---1-1-1-0-0-0-0-3-3-3 3-3-|
D|------------------------------------------------------------------|
    1 + 2 + 3 + 4 + 1 + 2 + 3 + 4 + 1 + 2 + 3 + 4 + 1 + 2 + 3 + 4 +

G|---------------------------------7---9-10---9-10-----9-10------9-10-----|
D|------------------------------------------8------7--------10--------10-o|
A|-5-5-5-5-1-1-1-0-0-0-0-3-3-3-3-3---------------------------------------o|
D|------------------------------------------------------------------------|
   1 + 2 + 3 + 4 + 1 + 2 + 3 + 4 + 1 + 2 +  3 + 4  + 1 + 2  +  3 + 4  +

Chorus 1:00
G|-----------------------------------------------------------------|
D|-----------------------------10----------------------------------|
A|-5-5-5-5-5-5-5-1---1-1-1-1/8-------------------3---3-3-3-----3---|
D|---------------------------------3---3-3-3-3-3-----------5-7-----|
   1 + 2 + 3 + 4 + 1 + 2 + 3 + 4 + 1 + 2 + 3 + 4 + 1 + 2 + 3 + 4 +

G|-----------------------------------------------------------------|
D|-----------------------------------------------------------------|
A|-5---5-5-5-5-5-1---1-1-1-1-1-1-1/8-8-8-8-8-8-8-3---3-3-3-----3---|
D|---------------------------------------------------------5-7-----|
   1 + 2 + 3 + 4 + 1 + 2 + 3 + 4 + 1 + 2 + 3 + 4 + 1 + 2 + 3 + 4 +

G|-----------------------------------------------------------------|
D|-----------------------------10----------------------------------|
A|-5---5-5-5-5-5-1---1-1-1-1/8-------------------3---3-3-3-----3---|
D|---------------------------------3---3-3-3-3-3-----------5-7-----|
   1 + 2 + 3 + 4 + 1 + 2 + 3 + 4 + 1 + 2 + 3 + 4 + 1 + 2 + 3 + 4 +

G|------------------------------------------12---10------------------------|
D|-------------------------------------10-----------10---10-10-10-7-8-10-\-|
A|-5---5-5-5-5-5-1---1-1-1-1-1-1-1-8-8----8----8---------------------------|
D|-------------------------------------------------------------------------|
   1 + 2 + 3 + 4 + 1 + 2 + 3 + 4 + 1 + 2  + 3  + 4  +  1 +  2  +  3 + 4  +

Rest

Verse 1:32
G|-----|------------------------------------------------------------------|
D|-----|o-----------------------------------------------------------------|
A|-----|o-5-5-5-5-1-1-1-0-0-0-0-3-3-3-3-3-5---5---1-1-1-0-0-0-0-3-3-3 3-3-|
D|-15\-|------------------------------------------------------------------|
   4 +    1 + 2 + 3 + 4 + 1 + 2 + 3 + 4 + 1 + 2 + 3 + 4 + 1 + 2 + 3 + 4 +

G|---------------------------------7---9-10---9-10-----9-10------9-10-----|
D|------------------------------------------8------7--------10--------10-o|
A|-5-5-5-5-1-1-1-0-0-0-0-3-3-3-3-3---------------------------------------o|
D|------------------------------------------------------------------------|
   1 + 2 + 3 + 4 + 1 + 2 + 3 + 4 + 1 + 2 +  3 + 4  + 1 + 2  +  3 + 4  +

Chorus 2:02
G|-----------------------------------------------------------------|
D|-----------------------------10----------------------------------|
A|-5-5-5-5-5-5-5-1---1-1-1-1/8-------------------3---3-3-3-----3---|
D|---------------------------------3---3-3-3-3-3-----------5-7-----|
   1 + 2 + 3 + 4 + 1 + 2 + 3 + 4 + 1 + 2 + 3 + 4 + 1 + 2 + 3 + 4 +

G|-----------------------------------------------------------------|
D|-----------------------------------------------------------------|
A|-5---5-5-5-5-5-1---1-1-1-1-1-1-1---------------3---3-3-3---0-3-0-|
D|---------------------------------3-3-3-3-3-3-3-----------5-------|
   1 + 2 + 3 + 4 + 1 + 2 + 3 + 4 + 1 + 2 + 3 + 4 + 1 + 2 + 3 + 4 +

G|-----------------------------------------------------------------|
D|-----------------------------10----------------------------------|
A|-3h5-----------1---1-1-1-1/8-------------------3---3-3-3-----3---|
D|-----0-0-0-0-0-------------------3---3-3-3-3-3-----------5-7-----|
   1 + 2 + 3 + 4 + 1 + 2 + 3 + 4 + 1 + 2 + 3 + 4 + 1 + 2 + 3 + 4 +

G|------------------------------------------12---10-------------------------|
D|-------------------------------------10-----------10---10-10-10-7-8-10-10-|
A|-5---5-5-5-5-5-1---1-1-1-1-1-1-1-8-8----8----8----------------------------|
D|--------------------------------------------------------------------------|
   1 + 2 + 3 + 4 + 1 + 2 + 3 + 4 + 1 + 2  + 3  + 4  +  1 +  2  +  3 + 4  +

G|----------------------------------|
D|--------------------2-3-----2-3---|
A|-10-\---------0-1-------3-------3-|
D|------5-----5---------------------|
   1  + 2 + 3 + 4 + 1 + 2 + 3 + 4 + 

Solo 2:35
G|-----------------------------------------------------------------|
D|-----------------------------------------------------------------|
A|-5-5-5-5-1-1-1-0-0-0-0-3-3-3-3-3-5---5-5-1-1-1-0-0-0-0-3-3-3-3-3-|
D|-----------------------------------------------------------------|
   1 + 2 + 3 + 4 + 1 + 2 + 3 + 4 + 1 + 2 + 3 + 4 + 1 + 2 + 3 + 4 +

G|---------------------------------7---9-10---9-10-----9-10------9-10----|
D|------------------------------------------8------7-7------10--------10-|
A|-5-5-5-5-1-1-1-0-0-0-0-3-3-3-3-3---------------------------------------|
D|-----------------------------------------------------------------------|
   1 + 2 + 3 + 4 + 1 + 2 + 3 + 4 + 1 + 2 +  3 + 4  + 1 + 2  +  3 + 4  +

G|-----------------------------------------------------------------|
D|-----------------------------------------------------------------|
A|-5-5-5-5-1-1-1-0-0-0-0-3-3-3-3-3-5-5-5-5-1-1-1-0-0-0-0-3-3-3-3-3-|
D|-----------------------------------------------------------------|
   1 + 2 + 3 + 4 + 1 + 2 + 3 + 4 + 1 + 2 + 3 + 4 + 1 + 2 + 3 + 4 +

G|-----------------------------------------------------------------|
D|---------------------------------------------------2-3-----2-3---|
A|-5-5-5-5-1-1-1-0-0-0-0-3-3-3-3-3/10\---------0-1-------3-------3-|
D|-------------------------------------5-----5---------------------|
   1 + 2 + 3 + 4 + 1 + 2 + 3 + 4 + 1 + 2 + 3 + 4 + 1 + 2 + 3 + 4 +

Rest

Chorus 3:08
G|---------------------------------------------------------------------|
D|---------------------------------10----------------------------------|
A|-----5-5-5-5-5-5-5-1---1-1-1-1/8-------------------3---3-3-3-----3---|
D|-15\---------------------------------3---3-3-3-3-3-----------5-7-----|
   4 + 1 + 2 + 3 + 4 + 1 + 2 + 3 + 4 + 1 + 2 + 3 + 4 + 1 + 2 + 3 + 4 +

G|-----------------------------------------------------------------|
D|-----------------------------------------------------------------|
A|---------------1---1-1-1-1-1-1-1---------------3---3-3-3---0-3-0-|
D|-0---0-0-0-0-0-------------------3-3-3-3-3-3-3-----------5-------|
   1 + 2 + 3 + 4 + 1 + 2 + 3 + 4 + 1 + 2 + 3 + 4 + 1 + 2 + 3 + 4 +

G|-----------------------------------------------------------------|
D|-----------------------------10----------------------------------|
A|-3h5-----------1---1-1-1-1/8-------------------3---3-3-3-----3---|
D|-----0-0-0-0-0-------------------3---3-3-3-3-3-----------5-7-----|
   1 + 2 + 3 + 4 + 1 + 2 + 3 + 4 + 1 + 2 + 3 + 4 + 1 + 2 + 3 + 4 +

G|------------------------------------------12---10---------------------------|
D|-------------------------------------10-----------10---12-12-10-12-12-12-10-|
A|-5---5-5-5-5-5-1---1-1-1-1-1-1-1-8-8----8----8------------------------------|
D|----------------------------------------------------------------------------|
   1 + 2 + 3 + 4 + 1 + 2 + 3 + 4 + 1 + 2  + 3  + 4  +  1 +  2  +  3  +  4  +

Outro 3:38
G|-----------------------------------------------------------------|
D|-----------------------------------------------------------------|
A|---------------1---1-1-1-1-1-1-1---------------3---3-3-3-3-3-3-3-|
D|-0-0-0-0-0-0-0-------------------3-3-3-3-3-3-3-------------------|
   1 + 2 + 3 + 4 + 1 + 2 + 3 + 4 + 1 + 2 + 3 + 4 + 1 + 2 + 3 + 4 +

G|-----------------------------------------------------------------|
D|-----------------------------------------------------------------|
A|---------------1---1-1-1-1-1-1-1---------------3---3-------------|
D|-0-0-0-0-0-0-0-------------------3-3-3-3-3-3-3-------5-5-3-3-2-2-|
   1 + 2 + 3 + 4 + 1 + 2 + 3 + 4 + 1 + 2 + 3 + 4 + 1 + 2 + 3 + 4 +
Tabbed by Dave Vucko
Suggest correction
Give kudos to tab author, rate the tab!
1 2 3 4 5
comments
print report bad tab
1 comment total.
+1 reply
tonybetts 10 5 days ago

Awesome job - your Ghost bass tabs have provided me with hours of great study. Please keep em coming!

guest
You may want to rate the tab now too:
select rating
Wanna post a correction for this tab? Suggest correction