Oops, an error
Loading. Please wait.
We have an official Square Hammer tab made by UG professional guitarists. Check out the tab »
×

Square Hammer chords

version 2
version 2

Whole song

  • This version is the only full version on the site,... Show more
  • Ghost tunes down to D and plays it in E, but this ... Show more

Interactive

by Ghost
2,218 views 45 this week
1 commentread comment
1 2 3 4 5
x 4
add to favorites
×
Save as Personal and add changes to this tab that will be seen only by you. Learn more ›
×
You can save this tab as Personal to edit and correct it or add notes. All changes will be seen only by you. Learn more »
launch autoscroll
font size
0
reset
transpose
0
reset
display chords
guitar tuner
backing track
0:00
0:00
edit
Autoscroll
slow
fast
+/-
esc
set tempo
stop
About this tab version
Ghost tunes down to D and plays it in E, but this works better for an acoustic. The original solo has some other parts, but this'll do fine. Was this info helpful? Yes No
Strumming
There is no strumming pattern for this song yet. and get +5 IQ
[Intro]
    Am        F         E
e|-----------------------------------------------|
B|-----------------------------------------------|
G|-----------------------------------------------|  Main riff * 8
D|-----------------------------------------------|
A|--0----2-3-------2-3-------2-3-----2-3---------| Listen to the song to get the rhythm
E|------------1---------0---------3------3-------|  

[Verse 1]
              Am        F    E
Living in the night
                   Am       F    E
'Neath devils torn asunder
     Am  F  E
You call on me
E
To solve a crooked rhyme

e|-----------------------------------------------|
B|-----------------------------------------------|
G|-----------------------------------------------|  Main riff * 1
D|-----------------------------------------------|
A|--0----2-3-------2-3-------2-3-----2-3---------| 
E|------------1---------0---------3------3-------|  

               Am   F   E              
As I'm closing in
                 Am       F    E
Imposing on your slumber
     Am  F  E
You call on me
E
As bells begin to chime

e|-----------------------------------------------|
B|-----------------------------------------------|
G|-----------------------------------------------|  Main riff * 1
D|-----------------------------------------------|
A|--0----2-3-------2-3-------2-3-----2-3---------| 
E|------------1---------0---------3------3-------|  

[Chorus]
Am               F
Are you on the square?
C               G
Are you on the level?
Am                F                      C
Are you ready to swear right here right now
             G
Before the devil
Am                   F
That you're on the square
C                     G
That you're on the level
Am                    F                      C             G
That you're ready to stand right here right now
                  Am
Right here right now

e|-----------------------------------------------|
B|-----------------------------------------------|
G|-----------------------------------------------|  Main riff * 1
D|-----------------------------------------------|
A|--0----2-3-------2-3-------2-3-----2-3---------| 
E|------------1---------0---------3------3-------|  

[Verse 2]
                Am     F    E
Hiding from the light
             Am       F    E
Sacrificing nothing
           Am  F   E
Still you call on me
E
For entrance to the shrine

e|-----------------------------------------------|
B|-----------------------------------------------|
G|-----------------------------------------------|  Main riff * 1
D|-----------------------------------------------|
A|--0----2-3-------2-3-------2-3-----2-3---------| 
E|------------1---------0---------3------3-------|  

              Am      F    E
Hammering the nails
              Am      F    E
Into a sacred coffin
    Am   F  E
You call on me
E
For powers clandestine

e|-----------------------------------------------|
B|-----------------------------------------------|
G|-----------------------------------------------|  Main riff * 1
D|-----------------------------------------------|
A|--0----2-3-------2-3-------2-3-----2-3---------| 
E|------------1---------0---------3------3-------|  

[Chorus]
Am               F
Are you on the square?
C               G
Are you on the level?
Am                 F                    C
Are you ready to swear right here right now
             G
Before the devil
Am                   F
That you're on the square
C                     G
That you're on the level
Am                     F                     C             G
That you're ready to stand right here right now
                  Am
Right here right now

[Solo]
Am F E

[Chorus]
Am                F
Are you on the square?
C               G
Are you on the level?
Am                 F                    C
Are you ready to swear right here right now
             G
Before the devil
Am                  F
That you're on the square
C                    G
That you're on the level
Am                     F                     C             G
That you're ready to stand right here right now
                  Am         F
Right here right now
                  C          G
Right here right now
                  Am         F
Right here right now 
                  C          G
Right here right now
              N.C.
Right here right now

            
            
Suggest correction
Creating personal tab
Creating personal tab
You can edit any tab online and save it as your Personal.

You can edit, replace or remove any tab part or add personal notes – all changes will be seen only by you.

Personal tabs can be accessed anytime from any device, even offline.
Learn more »
comments
print report bad tab
1 comment total.
0 reply
bearnbull 10 Apr 22, 2017 10:43 PM

Strumming pattern please?

guest
You may want to rate the tab now too:
select rating
Wanna post a correction for this tab? Suggest correction