Oops, an error
Loading. Please wait.

Square Hammer Tab

version 2
version 2

Whole song

Interactive

331 views 93 this week
2 commentsread comments
1 2 3 4 5
2 more votes to show rating
add to favorites
launch autoscroll
font size
0
reset
how to read this tab
guitar tuner
Autoscroll
slow
fast
+/-
esc
set tempo
stop
Help us to improve Ultimate-Guitar.com Take our survey!
×
Author
Difficulty
intermediate
About this tab version
It sounds correct and fits good. Was this info helpful? Yes No
Ghost - Square Hammer

Some people play it on drop d but it can be played on E too.
Any correction will be welcome

[Intro]

e|---------------------------------------------------------------------------|
B|---------------------------------------------------------------------------|
G|---------------------------------------------------------------------------|
D|--7-7-7-7---------------5-5-5-5----x3--------------------------------------|
A|--5-5-5-5-8-8-8-7-7-7-7-3-3-3-3--------------------------------------------|
E|----------6-6-6-7-5-5-5----------------------------------------------------|

e|---------------------------------------------------------------------------|
B|---------------------------------------------------------------------------|
G|---------------------------------------------------------------------------|
D|---------------------------------------------------------------------------|
A|--5-7-8---7-8---7-8---7-8-------x1-----------------------------------------|
E|--------6-----5-----8-----8------------------------------------------------|

[Verse]

e|---------------------------------------------------------------------------|
B|---------------------------------------------------------------------------|
G|---------------------------------------------------------------------------|
D|--7-7-7-7---------------5-5-5-5----x3--------------------------------------|
A|--5-5-5-5-8-8-8-7-7-7-7-3-3-3-3--------------------------------------------|
E|----------6-6-6-5-5-5-5----------------------------------------------------|
 Pm----------------------------


e|---------------------------------------------------------------------------|
B|---------------------------------------------------------------------------|
G|---------------------------------------------------------------------------|
D|---------------------------------------------------------------------------|
A|--5-7-8---7-8---7-8---7-8-------x1-----------------------------------------|
E|--------6-----5-----8-----8------------------------------------------------|


e|---------------------------------------------------------------------------|
B|---------------------------------------------------------------------------|
G|---------------------------------------------------------------------------|
D|--7-7-7-7---------------5-5-5-5----x3--------------------------------------|
A|--5-5-5-5-8-8-8-7-7-7-7-3-3-3-3--------------------------------------------|
E|----------6-6-6-5-5-5-5----------------------------------------------------|
 Pm----------------------------


e|---------------------------------------------------------------------------|
B|---------------------------------------------------------------------------|
G|---------------------------------------------------------------------------|
D|---------------------------------------------------------------------------|
A|--5-7-8---7-8---7-8---7-8-------x1-----------------------------------------|
E|--------6-----5-----8-----8------------------------------------------------|


[Chorus]

e|---------------------------------------------------------------------------|
B|---------------------------------------------------------------------------|
G|---------------------------------------------------------------------------|
D|--7-7-7-7------------10---------5-5----------------------------------------|
A|--5-5-5-5-8-8-6/8-10----3-3-3-3-3-3-----3----------------------------------|
E|----------6-6-----------1-1-1-1-----3-5------------------------------------|

e|---------------------------------------------------------------------------|
B|---------------------------------------------------------------------------|
G|---------------------------------------------------------------------------|
D|--7-7-7-7---------------5-5------------------------------------------------|
A|--5-5-5-5-8-8-8-3-3-3-3-3-3-----3------------------------------------------|
E|----------6-6-6-1-1-1-1-----3-5--------------------------------------------|


e|---------------------------------------------------------------------------|
B|---------------------------------------------------------------------------|
G|---------------------------------------------------------------------------|
D|--7-7-7-7------------10---------5-5----------------------------------------|
A|--5-5-5-5-8-8-6/8-10----3-3-3-3-3-3-----3----------------------------------|
E|----------6-6-----------1-1-1-1-----3-5------------------------------------|

e|---------------------------------------------------------------------------|
B|---------------------------------------------------------------------------|
G|---------------------------------------------------------------------------|
D|--7-7-7-7---------------5---3----------------------------------------------|
A|--5-5-5-5-8-8-8-----3---------3--------------------------------------------|
E|----------6-6-6-1-1---1---1------------------------------------------------|


[Bridge]

e|---------------------------------------------------------------------------|
B|---------------------------------------------------------------------------|
G|---------------------------------------------------------------------------|
D|---------3-2-3---2-3-------------------------------------------------------|
A|-5-5-----1-----2-----------------------------------------------------------|
E|-3-3-3-5-------------------------------------------------------------------|


[Solo]

e|--------------------------5----|-------------------------------------------|
B|--------------5-----6----------|-------------------------------------------|
G|------5-7-------------------7--|--7p5-7p5---7-7p5-7p5---5-7b9r7------------|
D|--5-7-----7-7---7-7---7-7------|----------7-----------7--------------------|
A|-------------------------------|-------------------------------------------|
E|-------------------------------|-------------------------------------------|

e|-----------------------|---------------------------------------------------|
B|----5b6r5--------------|----5-6---5-6---5-6---5-6--------------------------|
G|--7-------5------------|--7-----------------5-----5------------------------|
D|--------------------5--|--------8-----7------------------------------------|
A|------------6b7r6-8----|---------------------------------------------------|
E|-----------------------|---------------------------------------------------|
W
e|-------------------------------|----------------5--------------------------|
B|-------------------------------|------------------6-6-6-5-5----------------|
G|--5/7-7-5/7-5-5-5/7-7-5/7-5-5--|--5/7-7-5/7-5-5-------------7--------------|
D|--5/7-7-5/7-5-5-5/7-7-5/7-5-5--|--5/7-7-5/7-5-5---------------7------------|
A|--3/5-5-3/5-3-3-3/5-5-3/5-3-3--|--3/5-5-3/5-3-3----------------------------|
E|-------------------------------|-------------------------------------------|

e|------------------------------|--------------------------------------------------|
B|--13h15-15-17b18r17-15-13-----|--13h15p13----13h15p13----13h15p13----13-13-15-15-|
G|------------------------------|--------------------------------------------------|
D|------------------------------|--------------------------------------------------|
A|--------------------------15--|-----------15----------15----------15-------------|
E|------------------------------|--------------------------------------------------|



[Outro]


e|---------------------------------------------------------------------------|
B|---------------------------------------------------------------------------|
G|---------------------------------------------------------------------------|
D|--7-7-7-7---------------5-5-5-5---x4---------------------------------------|
A|--5-5-5-5-8-8-8-3-3-3-3-3-3-3-3--------------------------------------------|
E|----------6-6-6-1-1-1-1----------------------------------------------------|

Structure

Intro
Verse
Chorus
Verse
Chorus
Bridge
Solo
Chorus
Outro


************************************

| x  Dead note
| /  Slide up

************************************
Suggest correction
Give kudos to tab author, rate the tab!
1 2 3 4 5
comments
print report bad tab
2 comments total.
+1 reply
DowndropRain261 10 Nov 19, 2016 02:20 PM

e|--------------------------------------------------------------
B|--------------------------------------------------------------
G|--------------------------------------------------------------
D|--------------------------------------------------------------
A|--5--7-8---7-8---7-8---7-8------------------------------------
E|---------6-----5-----8-----8----------------------------------
I'm sure that main riff isn't right.Here is the right version.
But another parts are good.4 stars

0 reply
lucasreinaud 54 Nov 19, 2016 03:36 PM

Yes you are right downdroprain261. I wrote it wrong. I corrected it. Thank you!

guest
You may want to rate the tab now too:
select rating
Wanna post a correction for this tab? Suggest correction