Oops, an error
Loading. Please wait.
We have an official Square Hammer tab made by UG professional guitarists. Check out the tab »
×

Square Hammer tab

version 3
version 3

Whole song

  • It sounds correct and fits good.
  • This is in correct D-standard tuning. There's no s... Show more

Interactive

by Ghost
2,578 views 156 this week
no commentswrite comment
1 2 3 4 5
x 3
add to favorites
×
Save as Personal and add changes to this tab that will be seen only by you. Learn more ›
×
You can save this tab as Personal to edit and correct it or add notes. All changes will be seen only by you. Learn more »
launch autoscroll
font size
0
reset
how to read this tab
guitar tuner
backing track
0:00
0:00
edit
Autoscroll
slow
fast
+/-
esc
set tempo
stop
About this tab version
This is in correct D-standard tuning. There's no solo, but if you're good enough to play the solo, you'll have no problem working it out from the other tabs available which are fine. Was this info helpful? Yes No
[Intro riff}
D|---------------------------------------------------------------------------| (8x)
A|---------------------------------------------------------------------------|
F|---------------------------------------------------------------------------|
C|---------------------------------------------------------------------------|
G|-7--9-10---9-10----9-10----9-10--------------------------------------------|
D|----------8------7-------10-----10-----------------------------------------|

[Intro Chords}
D|---------------------------------------------------------------------------| (3x)
A|---------------------------------------------------------------------------|
F|------555--4-44--77777-----------------------------------------------------|
C|-2-2--555--4-44--77777-----------------------------------------------------|
G|-2-2--333--2-22--55555-----------------------------------------------------|
D|-0-0-----------------------------------------------------------------------|

[Verse]
              (3x)                             (1x)
D|------------------------------|--------------------------------------------| (2x)
A|------------------------------|--------------------------------------------|
F|--9------5------4------7------|--------------------------------------------|
C|--9-(4x)-5-(3x)-4-(4x)-7-(5x)-|--------------------------------------------|
G|--7------3------2------5------|--7--9-10----9-10-----9-10-----9-10---------|
D|------------------------------|----------8-------7---------10------10------|
 |*************PM***************|

[Chorus]
D|--------------------------------------------------------------------------------------------|
A|--------------------------------------------------------------------------------------------|
F|----------5-55------------------------7-777------------------5-55-555-----------7-77--------|
C|-2-2-222--5-55---------12~--5-5-555---7-777---------2-2-222--5-55-555--5-5-555--7-77--------|
G|-2-2-222--3-33------10------5-5-555---5-555-----5~--2-2-222--3-33-333--5-5-555--5-55-----5--|
D|-0-0-000--------3/8---------3-3-333---------5-7-----0-0-000------------3-3-333-------5-7----|

D|--------------------------------------------------------------------------------------------|
A|--------------------------------------------------------------------------------------------|
F|----------5-55------------------------7-777------------------5-55-555-----------------------|
C|-2-2-222--5-55---------12~--5-5-555---7-777---------2-2-222--5-55-555---------7--5----------|
G|-2-2-222--3-33------10------5-5-555---5-555-----5---2-2-222--3-33-333-----5--------5~-----5-|
D|-0-0-000--------3/8---------3-3-333---------5-7-----0-0-000-----------3-3---3--3------5-7---|

[Intro riff}
D|---------------------------------------------------------------------------| (1x)
A|---------------------------------------------------------------------------|
F|---------------------------------------------------------------------------|
C|---------------------------------------------------------------------------|
G|-7--9-10---9-10----9-10----9-10--------------------------------------------|
D|----------8------7-------10-----10-----------------------------------------|

[Verse]
              (3x)                             (1x)
D|------------------------------|--------------------------------------------| (2x)
A|------------------------------|--------------------------------------------|
F|--9------5------4------7------|--------------------------------------------|
C|--9-(4x)-5-(3x)-4-(4x)-7-(5x)-|--------------------------------------------|
G|--7------3------2------5------|--7--9-10----9-10-----9-10-----9-10---------|
D|------------------------------|----------8-------7---------10------10------|
 |*************PM***************|

[Chorus]
D|--------------------------------------------------------------------------------------------|
A|--------------------------------------------------------------------------------------------|
F|----------5-55------------------------7-777------------------5-55-555-----------7-77--------|
C|-2-2-222--5-55---------12~--5-5-555---7-777---------2-2-222--5-55-555--5-5-555--7-77--------|
G|-2-2-222--3-33------10------5-5-555---5-555-----5~--2-2-222--3-33-333--5-5-555--5-55-----5--|
D|-0-0-000--------3/8---------3-3-333---------5-7-----0-0-000------------3-3-333-------5-7----|

D|--------------------------------------------------------------------------------------------|
A|--------------------------------------------------------------------------------------------|
F|----------5-55------------------------7-777------------------5-55-555-----------------------|
C|-2-2-222--5-55---------12~--5-5-555---7-777---------2-2-222--5-55-555---------7--5----------|
G|-2-2-222--3-33------10------5-5-555---5-555-----5---2-2-222--3-33-333-----5--------5~-----5-|
D|-0-0-000--------3/8---------3-3-333---------5-7-----0-0-000-----------3-3---3--3------5-7---|

[link to solo]

D|-------------------------------|
A|-------------------------------|
F|-------------------------------|
C|-------------------------------|
G|--------------9-10-----9-10----|
D|--5-5--5-7-8------10-------10--|


[Verse played under the solo]
              (3x)                             (1x)
D|------------------------------|--------------------------------------------| (2x)
A|------------------------------|--------------------------------------------|
F|--9------5------4------7------|--------------------------------------------| (No palm mutes second time)
C|--9-(4x)-5-(3x)-4-(4x)-7-(5x)-|--------------------------------------------|
G|--7------3------2------5------|--7--9-10----9-10-----9-10-----9-10---------|
D|------------------------------|----------8-------7---------10------10------|
 |*************PM***************|

[Last Chorus]
D|--------------------------------------------------------------------------------------------|
A|--------------------------------------------------------------------------------------------|
F|----------5-55------------------------7-777------------------5-55-555-----------7-77--------|
C|-2-2-222--5-55---------12~--5-5-555---7-777---------2-2-222--5-55-555--5-5-555--7-77--------|
G|-2-2-222--3-33------10------5-5-555---5-555-----5~--2-2-222--3-33-333--5-5-555--5-55-----5--|
D|-0-0-000--------3/8---------3-3-333---------5-7-----0-0-000------------3-3-333-------5-7----|

D|--------------------------------------------------------------------------------------------|
A|--------------------------------------------------------------------------------------------|
F|----------5-55------------------------7-777------------------5-55-555-----------------------|
C|-2-2-222--5-55---------12~--5-5-555---7-777---------2-2-222--5-55-555---------7--5----------|
G|-2-2-222--3-33------10------5-5-555---5-555-----5---2-2-222--3-33-333-----5--------5~-----5-|
D|-0-0-000--------3/8---------3-3-333---------5-7-----0-0-000-----------3-3---3--3------5-7---|

[Outro]
         {x2}           End
D|----------------|--------------| 
A|----------------|--------------|
F|-----5------7---|--------------|
C|-2---5---5--7---|--------------|
G|-2---3---5--5---|--------------|
D|-0-------3------|--5-5-3-3-2-2-|

************************************

| PM  Palm mute
| ~   Vibrato
| /   Slide up

************************************

            
            
Suggest correction
Creating personal tab
Creating personal tab
You can edit any tab online and save it as your Personal.

You can edit, replace or remove any tab part or add personal notes – all changes will be seen only by you.

Personal tabs can be accessed anytime from any device, even offline.
Learn more »
Give kudos to tab author, rate the tab!
1 2 3 4 5
comments
print report bad tab
guest
You may want to rate the tab now too:
select rating
Wanna post a correction for this tab? Suggest correction