Oops, an error
Loading. Please wait.

Stand By Him tab

version 2
version 2

Whole song

Interactive

by Ghost
368 views 1 this week
no commentswrite comment
1 2 3 4 5
2 more votes to show rating
add to favorites
×
Save as Personal and add changes to this tab that will be seen only by you. Learn more ›
×
You can save this tab as Personal to edit and correct it or add notes. All changes will be seen only by you. Learn more »
launch autoscroll
font size
0
reset
how to read this tab
guitar tuner
backing track
0:00
0:00
edit
Autoscroll
slow
fast
+/-
esc
set tempo
stop
Stand By Him

Standard Tuning, but tuned down one whole step

|: = repeat sign
:| = repeat sign
^ = hammer-on/pull-off
/ = slide up
\ = slide down
() = harmonics
x = string mute
^b = bend
qr = Quick Rest
T = tapping

pm
== = Palm Mute



INTRO, GUITAR ONE, PLAY FOUR TIMES
d||--------------------------------------||
A||:------------------------------------:||
F||----------12---12\9------9---9\7------|| 
C||------pm---X----X\X------X---X\X------||
G||:-14\-===-10-=-10\7--===-7-=-7\5-----:|| 
D||--12\-0-0----0-------0-0---0----------||



INTRO, GUITAR TWO, PLAY FOUR TIMES
d||--------------------------------------||
A||:------------------------------------:||
F||--------------------------------------||
C||------pm--9-------9--------9----9\8---|| 
G||:-14\-===-7-=====-7-=====--X-=--X\X--:||
D||--12\-0-0---0-0-0---0-0-0--7-0--7\6---||



VERSE, GUITAR ONE
D||-----------------------------------------------------------||
A||:---------------------------------------------------------:||
F||-----------------------------------12---12\9-----9---9\7---||
C||--pm------------------9---9\8-------X----X\X-----X---X\X---||
G||:-===================-X-=-X\X-===--10-=-10\7-===-7-=-7\5--:||
D||--0-0-0-0-0-0-0-0-0-0-7-0-7\6-0-0-----0------0-0---0-------||




VERSE, GUITAR TWO
D||-----------------------------------------------------------||
A||:---------------------------------------------------------:||
F||-----------------------------------------------------------||
C||--pm------------------9---9\8-----9-------9-------9---9\8--||
G||:-===================-X-=-X\X-===-7-=====-7-=====-X-=-X\X-:||
D||--0-0-0-0-0-0-0-0-0-0-7-0-7\6-0-0---0-0-0---0-0-0-7-0-7\6--||




d|----------------------------------------------------
A|----------------------------------------------------
F|-------------6----------6-------------6---------6---
C|---PM--------5----------6-------------5---------6---
G|---=========-4--=======-4---=========-4-=======-4---
D|---3-3-3-3-3----3-3-3-3-----3-3-3-3-3---3-3-3-3-----




VERSE, GUITAR ONE
D||-----------------------------------------------------------||
A||:---------------------------------------------------------:||
F||-----------------------------------12---12\9-----9---9\7---||
C||--pm------------------9---9\8-------X----X\X-----X---X\X---||
G||:-===================-X-=-X\X-===--10-=-10\7-===-7-=-7\5--:||
D||--0-0-0-0-0-0-0-0-0-0-7-0-7\6-0-0-----0------0-0---0-------||




VERSE, GUITAR TWO
D||-----------------------------------------------------------||
A||:---------------------------------------------------------:||
F||-----------------------------------------------------------||
C||--pm------------------9---9\8-----9-------9-------9---9\8--||
G||:-===================-X-=-X\X-===-7-=====-7-=====-X-=-X\X-:||
D||--0-0-0-0-0-0-0-0-0-0-7-0-7\6-0-0---0-0-0---0-0-0-7-0-7\6--||



d|----------------------------------------------------
A|----------------------------------------------------
F|-------------6----------6-------------6---------6---
C|---PM--------5----------6-------------5---------6---
G|---=========-4--=======-4---=========-4-=======-4---
D|---3-3-3-3-3----3-3-3-3-----3-3-3-3-3---3-3-3-3-----



CHORUS GUITAR ONE
d|-------------------------------------------------------------------------------------------
A|------6-------6--------4---------11----------6-------6-------4--------11---------11--------
F|----5---5---5---5----3---3----10----10-----5---5---5---5---3---3---10----10---10----10-----
C|--3-------3--------1--------8------------3-------3-------1-------8----------8--------------
G|-------------------------------------------------------------------------------------------
D|-------------------------------------------------------------------------------------------



CHORUS GUITAR ONE
d|-------------------------------------------------------
A|------11---------9--------4--------6-------6-----------
F|---10----10----8---8----3---3----5---5---5---5-------3-
C|-8-----------6--------1--------3-------3---------8\3-3-
G|-------------------------------------------------6\1-1-
D|-------------------------------------------------------




CHORUS GUITAR ONE
d|-------------------------------------------------------------------------------------------
A|------6-------6--------4---------11----------6-------6-------4--------11---------11--------
F|----5---5---5---5----3---3----10----10-----5---5---5---5---3---3---10----10---10----10-----
C|--3-------3--------1--------8------------3-------3-------1-------8----------8--------------
G|-------------------------------------------------------------------------------------------
D|-------------------------------------------------------------------------------------------



CHORUS GUITAR ONE
d|-------------------------------------------------------
A|------11---------9--------4--------6-------6-----------
F|---10----10----8---8----3---3----5---5---5---5-------3-
C|-8-----------6--------1--------3-------3---------8\3-3-
G|-------------------------------------------------6\1-1-
D|-------------------------------------------------------



CHORUS GUITAR TWO, PLAY TWICE
d||------------------------------------------------------------------------------------------
A||:-----------------------------------------------------------------------------------------
F||-----------------------8---------------------------------8--------------------------------
C||-------3-------3-----8---8------8--------3-------3-----8---8-----8-------8-------8--------
G||:----3---3---3---3-6----------8---8----3---3---3---3-6---------8---8---8---8---8---8------
D||---1-------1----------------6--------1-------1---------------6-------6-------6------------


CHORUS GUITAR TWO
d|----------------------------------------------||
A|---------------------------------------------:||
F|---------------8--------------------------3---||
C|------6------8---8-------3-------3----8\3-3---||
G|----6---6--6-----------3---3---3---3--6\1-1--:||
D|--4------------------1-------1----------------||



SOLO
d|-------------------------------------------------------------------------------------------
A|----12T-8^7^5^0^5^7^8--12T-8^7^5^0^5^7^8---12T-7^5^4^0^4^5^7--12T-7^5^4^0^4^5^7------------
F|-------------------------------------------------------------------------------------------
C|-------------------------------------------------------------------------------------------
G|-------------------------------------------------------------------------------------------
D|-------------------------------------------------------------------------------------------



SOLO
d|-------------------------------------------------------------------------------------------
A|-12T-8^7^5^0^5^7^8--12T-8^7^5^0^5^7^8---11T-5^7-11T-5^7-11T-7^5^7-11T--5^8-12T-5^8-12T-5^8-
F|-------------------------------------------------------------------------------------------
C|-------------------------------------------------------------------------------------------
G|-------------------------------------------------------------------------------------------
D|-------------------------------------------------------------------------------------------




SOLO
d|-------------------------------------------------------------------------------------------
A|-12T-8^5^8-12T--5^8-13T-5^8-13T-5^8-13T-8^5^8-13T--5^7-12T-5^7-12T-5^7-12T-7^5^7-12T-------
F|-------------------------------------------------------------------------------------------
C|-------------------------------------------------------------------------------------------
G|-------------------------------------------------------------------------------------------
D|-------------------------------------------------------------------------------------------



SOLO
d|------------------------------------------10-----------------------------------------------
A|--5^7-11T-5^7-11T-5^7-11T-7^5^7-11T---5^7--8-----------------------------------------------
F|-------------------------------------------------------------------------------------------
C|-------------------------------------------------------------------------------------------
G|-------------------------------------------------------------------------------------------
D|-------------------------------------------------------------------------------------------



GUITAR UNDER SOLO
d|-------------------------------------------------------------------------------------------
A|-------------------------------------------------------------------------------------------
F|-------------------------------------------------------------------------------------------
C|-2-----------------------------------------------------------------------------------------
G|-2-----------------------------------------------------------------------------------------
D|-0------7-7-7-7-7-7-7-7-7-7-7-7-0--------6-6-6-6-6-6-6-6-6-6-6-6-0-0-0-0-0-0-0-0-0-0-0-0---



GUITAR UNDER SOLO
d|-----------------------------------------------------------------------------
A|-----------------------------------------------------------------------------
F|-----------------------------------------------------------------------------
C|-----------------------------------------------------------------------------
G|-----------------------------------------------------------------------------
D|--8-8-8-8-8-8-8-8-8-8-8-8--7-7-7-7-7-7-7-7-7-7-7-7--6-6-6-6-6-6-6-6-6-6-6-6--



Play two times
d||----------------------------------------||
A||:--------------------------------------:||
F||-----------------------------------qr---||
C||-------4-------6-------4----------------||
G||:-5-5--2--3-3--4--5-5--2--5-5-5-5------:||
D||--3-3-----1-1-----3-3-----3-3-3-3-------||



PLAY FOUR TIMES
d||-----------------------------------------------||
A||:---------------------------------------------:||
F||-----------------------------------------------||
C||-----------------------------------------------||
G||:---------------------------------------------:||
D||---0-0-0-0-0-0-0-0-0-0-0-0-0-0-0-0-0-7-0-7\6---||



PLAY TWICE
d||------------------------------------||
A||:----------------------------------:||
F||------------------6-------------6---||
C||------------------5-------------6---||
G||:-----------------4-------------4--:||
D||--3-3-3-3-3-3-3-3---3-3-3-3-3-3-----||




VERSE, GUITAR ONE
D||-----------------------------------------------------------||
A||:---------------------------------------------------------:||
F||-----------------------------------12---12\9-----9---9\7---||
C||--pm------------------9---9\8-------X----X\X-----X---X\X---||
G||:-===================-X-=-X\X-===--10-=-10\7-===-7-=-7\5--:||
D||--0-0-0-0-0-0-0-0-0-0-7-0-7\6-0-0-----0------0-0---0-------||




VERSE, GUITAR TWO
D||-----------------------------------------------------------||
A||:---------------------------------------------------------:||
F||-----------------------------------------------------------||
C||--pm------------------9---9\8-----9-------9-------9---9\8--||
G||:-===================-X-=-X\X-===-7-=====-7-=====-X-=-X\X-:||
D||--0-0-0-0-0-0-0-0-0-0-7-0-7\6-0-0---0-0-0---0-0-0-7-0-7\6--||



d|----------------------------------------------------
A|----------------------------------------------------
F|-------------6----------6-------------6---------6---
C|---PM--------5----------6-------------5---------6---
G|---=========-4--=======-4---=========-4-=======-4---
D|---3-3-3-3-3----3-3-3-3-----3-3-3-3-3---3-3-3-3-----



CHORUS GUITAR ONE
d|-------------------------------------------------------------------------------------------
A|------6-------6--------4---------11----------6-------6-------4--------11---------11--------
F|----5---5---5---5----3---3----10----10-----5---5---5---5---3---3---10----10---10----10-----
C|--3-------3--------1--------8------------3-------3-------1-------8----------8--------------
G|-------------------------------------------------------------------------------------------
D|-------------------------------------------------------------------------------------------



CHORUS GUITAR ONE
d|-------------------------------------------------------
A|------11---------9--------4--------6-------6-----------
F|---10----10----8---8----3---3----5---5---5---5-------3-
C|-8-----------6--------1--------3-------3---------8\3-3-
G|-------------------------------------------------6\1-1-
D|-------------------------------------------------------




CHORUS GUITAR ONE
d|-------------------------------------------------------------------------------------------
A|------6-------6--------4---------11----------6-------6-------4--------11---------11--------
F|----5---5---5---5----3---3----10----10-----5---5---5---5---3---3---10----10---10----10-----
C|--3-------3--------1--------8------------3-------3-------1-------8----------8--------------
G|-------------------------------------------------------------------------------------------
D|-------------------------------------------------------------------------------------------



CHORUS GUITAR ONE
d|-------------------------------------------------------
A|------11---------9--------4--------6-------6-----------
F|---10----10----8---8----3---3----5---5---5---5-------3-
C|-8-----------6--------1--------3-------3---------8\3-3-
G|-------------------------------------------------6\1-1-
D|-------------------------------------------------------




CHORUS GUITAR TWO, PLAY TWICE
d||------------------------------------------------------------------------------------------
A||:-----------------------------------------------------------------------------------------
F||-----------------------8---------------------------------8--------------------------------
C||-------3-------3-----8---8------8--------3-------3-----8---8-----8-------8-------8--------
G||:----3---3---3---3-6----------8---8----3---3---3---3-6---------8---8---8---8---8---8------
D||---1-------1----------------6--------1-------1---------------6-------6-------6------------


CHORUS GUITAR TWO
d|----------------------------------------------||
A|---------------------------------------------:||
F|---------------8--------------------------3---||
C|------6------8---8-------3-------3----8\3-3---||
G|----6---6--6-----------3---3---3---3--6\1-1--:||
D|--4------------------1-------1----------------||




END LEAD PART, GUITAR ONE
d|-------------------------------------------------------------------------------------
A|-----------------4------------------4-------------------6-4--6-8-8^b8-6-------4/6----
F|----5^3------5^3---5---5^3------5^3---5---5^b5-3----5^3-----------------5---5-----7--
C|--------6-3----------------6-3-------------------3-----------------------------------
G|-------------------------------------------------------------------------------------
D|-------------------------------------------------------------------------------------



END LEAD PART, GUITAR ONE
d|----------------------------------------------------------------------------------------
A|-----------------4------------------4-------------------6-4--6-8-8^b8-6-------4^3/6--9--
F|----5^3------5^3---5---5^3------5^3---5---5^b5-3----5^3-----------------5---5-----------
C|--------6-3----------------6-3-------------------3--------------------------------------
G|----------------------------------------------------------------------------------------
D|----------------------------------------------------------------------------------------



GUITAR TWO UNDER END LEAD
d|-------------------------------------------------------------------------------------------
A|-------------------------------------------------------------------------------------------
F|------------------------8---------------------------------8--------------------------------
C|--------3-------3-----8---8------8--------3-------3-----8---8-----8-------8-------8--------
G|------3---3---3---3-6----------8---8----3---3---3---3-6---------8---8---8---8---8---8------
D|----1-------1----------------6--------1-------1---------------6-------6-------6------------



GUITAR TWO UNDER END LEAD
d|------------------------------------------------
A|------------------------------------------------
F|---------------8--------------------------3-----
C|------6------8---8-------3-------3----8\3-3-----
G|----6---6--6-----------3---3---3---3--6\1-1-----
D|--4------------------1-------1------------------



GUITAR TWO UNDER END LEAD
d|------------------------------------------------------------------------
A|------------------------------------------------------------------------
F|------------------------8---------------------------------8-------------
C|--------3-------3-----8---8------8--------3-------3-----8---8-----8-----
G|------3---3---3---3-6----------8---8----3---3---3---3-6---------8---8---
D|----1-------1----------------6--------1-------1---------------6---------



GUITAR TWO UNDER END LEAD
d|--------------------------------------------------------------------
A|--------------------------------------------------------------------
F|--------------------------------------------------------------------
C|------------------------8------------10--------------6-8----9-------
G|---8^6---8---8/10-11-10---10---11-13----13-11-10---8----------------
D|-------9------------------------------------------------------------




Suggest correction
Creating personal tab
Creating personal tab
You can edit any tab online and save it as your Personal.

You can edit, replace or remove any tab part or add personal notes – all changes will be seen only by you.

Personal tabs can be accessed anytime from any device, even offline.
Learn more »
Give kudos to tab author, rate the tab!
1 2 3 4 5
comments
print report bad tab
guest
You may want to rate the tab now too:
select rating
Wanna post a correction for this tab? Suggest correction