Oops, an error
Loading. Please wait.

Year Zero Bass Tab

3,938 views 33 this week
3 commentsread comments
1 2 3 4 5
excellent!
x 4
add to favorites
launch autoscroll
font size
0
reset
guitar tuner
Autoscroll
slow
fast
+/-
esc
set tempo
stop
Help us to improve Ultimate-Guitar.com Take our survey!
×
Contributor
Difficulty
intermediate
Tabbed by Ruslan Donchenko
====================================================================

intro
G|-----------------------------------------------------------------|
D|-----------------------------------------------------------------|
A|-------------5-5-------------5-5-------------5-5-------------5-5-|
E|-----------------------------------------------------------------|
B|-3---3-----------3---3-----------3---3-----------3---3-----------|
   1 + 2 + 3 + 4 + 1 + 2 + 3 + 4 + 1 + 2 + 3 + 4 + 1 + 2 + 3 + 4 +

G|-----------------------------------------------------------------|
D|-----------------------------------------------------------------|
A|-------------5-5-------------5-5-------------5-5-----------------|
E|-----------------------------------------------------------------|
B|-3---3-----------3---3-----------3---3-----------3---3-----------|
   1 + 2 + 3 + 4 + 1 + 2 + 3 + 4 + 1 + 2 + 3 + 4 + 1 + 2 + 3 + 4 +

verse 1 (x2)
G|-----------------------------------------------------------------|
D|-----------------------------------------------------------------|
A|-----------------------------------------------------------------|
E|-----------------------------------------------------------------|
B|-3---3---3---3---3---3---3---3---3---3---3---3---3---3---3---3---|
   1 + 2 + 3 + 4 + 1 + 2 + 3 + 4 + 1 + 2 + 3 + 4 + 1 + 2 + 3 + 4 +

G|-----------------------------------------------------------------|
D|-----------------------------------------------------------------|
A|-----------------------------------------------------------------|
E|-----------------------------------------------------------------|
B|-3---3---3---3---3---3---3---3---3---3---3---3---3---3---3---4---|
   1 + 2 + 3 + 4 + 1 + 2 + 3 + 4 + 1 + 2 + 3 + 4 + 1 + 2 + 3 + 4 +

verse 2 
G|-----------------------------------------------------------------|
D|-----------------------------------------------------------------|
A|-----------------------------------------------------------------|
E|-----------------8-8-8-8-8-8-8-----------------------------------|
B|-3---3---3---3-------------------4---4---4---4---3---3---3---3---|
   1 + 2 + 3 + 4 + 1 + 2 + 3 + 4 + 1 + 2 + 3 + 4 + 1 + 2 + 3 + 4 +

G|-----------------------------------------------------------------|
D|-----------------------------------------------------------------|
A|-----------------------------------------------------------------|
E|-----------------8-8-8-8-8-8-8---6---6---6---6---9---9-----------|
B|-3---3---3---3---------------------------------------------------|
   1 + 2 + 3 + 4 + 1 + 2 + 3 + 4 + 1 + 2 + 3 + 4 + 1 + 2 + 3 + 4 +

chorus
G|-----------------------------------------------------------------|
D|-----------------------------------------------------------------|
A|-----5---3---5-------5---3---5---3-3-3-3-----3-5-6-6-6-6-6-6-6-6-|
E|-----------------------------------------3-3---------------------|
B|-3---------------3-----------------------------------------------|
   1 + 2 + 3 + 4 + 1 + 2 + 3 + 4 + 1 + 2 + 3 + 4 + 1 + 2 + 3 + 4 +

G|-----------------------------------------------------------------|
D|-------------------------------------------------5-5-5-5-5-5-5-5-|
A|-----5---3---5-------5---3---5---3-3-3-3-----3-3-----------------|
E|-----------------------------------------3-3---------------------|
B|-3---------------3-----------------------------------------------|
   1 + 2 + 3 + 4 + 1 + 2 + 3 + 4 + 1 + 2 + 3 + 4 + 1 + 2 + 3 + 4 +

G|-----------------------------------------------------------------|
D|-------------------------------------------------------3-5-3-----|
A|-----5---3---5-------5---3---5---3-3-3-3-----3-5-6-6-6-------6-6-|
E|-----------------------------------------3-3---------------------|
B|-3---------------3-----------------------------------------------|
   1 + 2 + 3 + 4 + 1 + 2 + 3 + 4 + 1 + 2 + 3 + 4 + 1 + 2 + 3 + 4 +


G|-----------------------------------------------------------------|
D|-------------------------------------------------5-5-5-5-5-5-5-5-|
A|-----5---3---5-------5---3---5---3-3-3-3-----3-3-----------------|
E|-----------------------------------------3-3---------------------|
B|-3---------------3-----------------------------------------------|
   1 + 2 + 3 + 4 + 1 + 2 + 3 + 4 + 1 + 2 + 3 + 4 + 1 + 2 + 3 + 4 +

verse 1 (x2)
G|-----------------------------------------------------------------|
D|-----------------------------------------------------------------|
A|-----------------------------------------------------------------|
E|-----------------------------------------------------------------|
B|-3---3---3---3---3---3---3---3---3---3---3---3---3---3---3---3---|
   1 + 2 + 3 + 4 + 1 + 2 + 3 + 4 + 1 + 2 + 3 + 4 + 1 + 2 + 3 + 4 +

G|-----------------------------------------------------------------|
D|-----------------------------------------------------------------|
A|-----------------------------------------------------------------|
E|-----------------------------------------------------------------|
B|-3---3---3---3---3---3---3---3---3---3---3---3---3---3---3---4---|
   1 + 2 + 3 + 4 + 1 + 2 + 3 + 4 + 1 + 2 + 3 + 4 + 1 + 2 + 3 + 4 +

verse 2 
G|-----------------------------------------------------------------|
D|-----------------------------------------------------------------|
A|-----------------------------------------------------------------|
E|-----------------8-8-8-8-8-8-8-----------------------------------|
B|-3---3---3---3-------------------4---4---4---4---3---3---3---3---|
   1 + 2 + 3 + 4 + 1 + 2 + 3 + 4 + 1 + 2 + 3 + 4 + 1 + 2 + 3 + 4 +

G|-----------------------------------------------------------------|
D|-----------------------------------------------------------------|
A|-------------------------------------------------9---9-----------|
E|-----------------8-8-8-8-8-8-8---6---6---6---6-------------------|
B|-3---3---3---3---------------------------------------------------|
   1 + 2 + 3 + 4 + 1 + 2 + 3 + 4 + 1 + 2 + 3 + 4 + 1 + 2 + 3 + 4 +

chorus
G|-----------------------------------------------------------------|
D|-----------------------------------------------------------------|
A|-----5---3---5-------5---3---5---3-3-3-3-----3-5-6-6-6-6-6-6-6-6-|
E|-----------------------------------------3-3---------------------|
B|-3---------------3-----------------------------------------------|
   1 + 2 + 3 + 4 + 1 + 2 + 3 + 4 + 1 + 2 + 3 + 4 + 1 + 2 + 3 + 4 +

G|-----------------------------------------------------------------------------------|
D|-------------------------------------------------5---5---5---5---------------------|
A|-----5---3---5-------5---3---5---3-3-3-3-----3-3---5---5---5---5-5-4-4-4-4-4-5-4-5-|
E|-----------------------------------------3-3---------------------------------------|
B|-3---------------3-----------------------------------------------------------------|
   1 + 2 + 3 + 4 + 1 + 2 + 3 + 4 + 1 + 2 + 3 + 4 + 1 + 2 + 3 + 4 +

solo part
G|-----------------------------------------------------------------|
D|-----------------------------------------------------------------|
A|---5-5-5-5-5-5-0-1-1-1-1-1-1-1-1-0-0-0-0-0-0-0-0-4-4-4-4-4-4-4-5-|
E|-----------------------------------------------------------------|
B|-----------------------------------------------------------------|
   1 + 2 + 3 + 4 + 1 + 2 + 3 + 4 + 1 + 2 + 3 + 4 + 1 + 2 + 3 + 4 +

G|-----------------------------------------------------------------|
D|-----------------------------------------------------------------|
A|-5-5-5-5-5-5-5-5-1-1-1-1-1-1-1-1-0-0-0-0-0-0-0-0-3---3---3---3---|
E|---------------------------------------------------3---3---3-----|
B|-----------------------------------------------------------------|
   1 + 2 + 3 + 4 + 1 + 2 + 3 + 4 + 1 + 2 + 3 + 4 + 1 + 2 + 3 + 4 +

G|-----------------------------------------------------------------|
D|-----------------------------------------------------------------|
A|-5-5-5-5-5-5-5-0-1-1-1-1-5-5-5-5-3-3-3-3-3-3-3-3-4-4-4-4-4-4-4-5-|
E|-----------------------------------------------------------------|
B|-----------------------------------------------------------------|
   1 + 2 + 3 + 4 + 1 + 2 + 3 + 4 + 1 + 2 + 3 + 4 + 1 + 2 + 3 + 4 +

G|-----------------------------------------------------------------|
D|-----------------------------------------------------------------|
A|-5-5-5-5-5-5-5-0-1-1-1-1-1-1-1-1-0-0-0-0-0-0-0-0-4-4-4-4-4-4-4-5-|
E|-----------------------------------------------------------------|
B|-----------------------------------------------------------------|
   1 + 2 + 3 + 4 + 1 + 2 + 3 + 4 + 1 + 2 + 3 + 4 + 1 + 2 + 3 + 4 +

G|-----------------------------------------------------------------|
D|-------------2-3-------------------------------------------------|
A|-----------------1-1-1-1-1-1-1-1-0-0-0-0-0-0-0-0-4-4-4-4-4-4-4-5-|
E|-----------------------------------------------------------------|
B|---3-6-3-6-3-----------------------------------------------------|
   1 + 2 + 3 + 4 + 1 + 2 + 3 + 4 + 1 + 2 + 3 + 4 + 1 + 2 + 3 + 4 +

G|-----------------------------------------------------------------|
D|-----------------------------------------------------------------|
A|-5-5-5-5-5-5-5-5-1-1-1-1-1-1-1-1-0-0-0-0-0-0-0-0-3---3---3---3---|
E|---------------------------------------------------3---3---3-----|
B|-----------------------------------------------------------------|
   1 + 2 + 3 + 4 + 1 + 2 + 3 + 4 + 1 + 2 + 3 + 4 + 1 + 2 + 3 + 4 +

G|-----------------------------------------------------------------|
D|-----------------------------------------------------------------|
A|-5-5-5-5-5-5-5-0-1-1-1-1-5-5-5-5-3-3-3-3-3-3-3---0-0-0-0-0-0-0-5-|
E|-----------------------------------------------3-----------------|
B|-----------------------------------------------------------------|
   1 + 2 + 3 + 4 + 1 + 2 + 3 + 4 + 1 + 2 + 3 + 4 + 1 + 2 + 3 + 4 +

G|-----------------------------------------------------------------|
D|-------------------------------------------------------0-2-3-5-7-|
A|-5-5-5-5-5-5-5-5-1-1-1-1-1-3-1-1-0-0-0-0-0-0-0-0-0-1-3-----------|
E|-----------------------------------------------------------------|
B|-----------------------------------------------------------------|
   1 + 2 + 3 + 4 + 1 + 2 + 3 + 4 + 1 + 2 + 3 + 4 + 1 + 2 + 3 + 4 +

Outro
G|-----------------------------------------------------------------|
D|-----------------------------------------------------------------|
A|---------------------------------3-3-3-3-3-3-3-3-----------------|
E|-----------------------------------------------------------------|
B|-3-3-------------3-------------------------------4-4-4-4-4-4-4-4-|
   1 + 2 + 3 + 4 + 1 + 2 + 3 + 4 + 1 + 2 + 3 + 4 + 1 + 2 + 3 + 4 +

G|-----------------------------------------------------------------|
D|-----------------------------------------------3-5-5-5-5-5-5-5-5-|
A|-----5-5-3-3-5-5-----5-5-3-3-5-5-3-3-3-3-3-3-3-------------------|
E|-----------------------------------------------------------------|
B|-3-3-------------3-3---------------------------------------------|
   1 + 2 + 3 + 4 + 1 + 2 + 3 + 4 + 1 + 2 + 3 + 4 + 1 + 2 + 3 + 4 +

G|------------------------------------------------------------------|
D|o-----------------------------------------------------------------|
A|o-----5-5-3-3-5-5-----5-5-3-3-5-5-3-3-3-3-3-3-3-3-----------------|
E|------------------------------------------------------------------|
B|--3-3-------------3-3-----------------------------4-4-4-4-4-4-4-4-|
    1 + 2 + 3 + 4 + 1 + 2 + 3 + 4 + 1 + 2 + 3 + 4 + 1 + 2 + 3 + 4 +

G|------------------------------------------------------------------|
D|-----------------------------------------------3-5-5-5-5-5-5-5-5-o|
A|-----5-5-3-3-5-5-----5-5-3-3-5-5-3-3-3-3-3-3-3-------------------o|
E|------------------------------------------------------------------|
B|-3-3-------------3-3----------------------------------------------|
   1 + 2 + 3 + 4 + 1 + 2 + 3 + 4 + 1 + 2 + 3 + 4 + 1 + 2 + 3 + 4 +
comments
print report bad tab
3 comments total.
+2 reply
6METAL6BASSIST6 9,318 wrote on July 31 2013, 07:07 pm

B standard?

-1 reply
Ghost6189 29 wrote on October 20 2015, 05:40 pm, edited at 05:42 pm

the ghost bc bassist use a 4 string bass not 5, with the tuning D G C F or E A D G

0 reply
metamike9 11 wrote on April 27 2016, 11:19 pm

nice tab 5 stars

I want to post or [tab]
guest
You may want to rate the tab now too:
select rating
Please do not post tabs as comments. Select "correction" instead!