Oops, an error
Loading. Please wait.

Year Zero tab

version 2
version 2

Whole song

Interactive

by Ghost
3,172 views 72 this week
1 commentread comment
1 2 3 4 5
x 3
add to favorites
×
Save as Personal and add changes to this tab that will be seen only by you. Learn more ›
×
You can save this tab as Personal to edit and correct it or add notes. All changes will be seen only by you. Learn more »
launch autoscroll
font size
0
reset
how to read this tab
guitar tuner
backing track
0:00
0:00
edit
Autoscroll
slow
fast
+/-
esc
set tempo
stop
Year Zero

Standard Tuning, but tuned down one whole step

|: = repeat sign
:| = repeat sign
^ = hammer-on/pull-off
/ = slide up
\ = slide down
() = harmonics
x = string mute
^b = bend
qr = quick rest

pm
== = Palm Mute



Intro guitar one
|-------------------------------------|------------------------------
|:-----------------------------------:|------------------------------
|-------------------------------------|------------------------------
|------pm-----------pm----------------|--------pm--------------------
|:-----=======------===============--:|--------=======------------6--
|--(5)-0-0-0-0--(5)-0-0-0-0-0-0-0-0---|----(5)-0-0-0-0--(5)----/7----



Intro guitar two
|-------------------------------------|------------------------------
|:-----------------------------------:|------------------------------
|-------------------------------------|---------------------------8--
|------pm-----------pm----------------|--------pm--------------/9----
|:-----=======------===============--:|--------=======---------------
|--(5)-0-0-0-0--(5)-0-0-0-0-0-0-0-0---|----(5)-0-0-0-0--(5)----------



Guitar one, Belial, Behemoth, Beelzebub...
----------------------------------------------------------------------------------------------
----------------------------------------------------------------------------------------------
----------------------------------------------------------------------------------------------
----pm------------------------pm----------------------pm------------------------pm---pm-------
-10-=======================-9-===================-6-7-=======================---==---==-----6-
----0-0-0-0-0-0-0-0-0-0-0-0---0-0-0-0-0-0-0-0-0-0-----0-0-0-0-0-0-0-0-0-0-0-0-0-00-0-00--/7---


Guitar two, Belial, Behemoth, Beelzebub...
----------------------------------------------------------------------------------------------
----------------------------------------------------------------------------------------------
-9------------------------------------------------------------------------------------------8-
-9-pm----------------------9-pm------------------4-5-pm-------------------------pm---pm--/9---
---=======================---===================------=======================---==---==-------
---0-0-0-0-0-0-0-0-0-0-0-0---0-0-0-0-0-0-0-0-0-0------0-0-0-0-0-0-0-0-0-0-0-0-0-00-0-00-------



Guitar one, Asmodeus, Satanas, Lucifer...
----------------------------------------------------------------------------------------------
----------------------------------------------------------------------------------------------
----------------------------------------------------------------------------------------------
----pm------------------------pm----------------------pm------------------------pm---pm---3---
-10-=======================-9-===================-6-7-=======================---==---==---x---
----0-0-0-0-0-0-0-0-0-0-0-0---0-0-0-0-0-0-0-0-0-0-----0-0-0-0-0-0-0-0-0-0-0-0-0-00-0-00---1---



Guitar two, Asmodeus, Satanas, Lucifer...
----------------------------------------------------------------------------------------------
----------------------------------------------------------------------------------------------
-9--------------------------------------------------------------------------------------------
-9-pm----------------------9-pm------------------4-5-pm-------------------------pm---pm-------
---=======================---===================------=======================---==---==-------
---0-0-0-0-0-0-0-0-0-0-0-0---0-0-0-0-0-0-0-0-0-0------0-0-0-0-0-0-0-0-0-0-0-0-0-00-0-00---1---



VERSE ONE “Since dawn of time the fate of man is that of lice”
---------------------------------------------------------------------
---------------------------------------------------------------------
---------------------------------------------------------------------
--pm-----------------------------------------------------------------
--===================================================================
--0-0-0-0-0-0-0-0-0-0-0-0-0-0-0-0-0-0-0-0-0-0-0-0-0-0-0-0-0-0-0-0-0-0



VERSE ONE “Equal as parasites and moving without eyes”
--------------------------------------------------------------------
--------------------------------------------------------------------
--------------------------------------------------------------------
--pm----------------------------------------------------------------
--===============================================================---
--0-0-0-0-0-0-0-0-0-0-0-0-0-0-0-0-0-0-0-0-0-0-0-0-0-0-0-0-0-0-0-0-1-



GUITAR ONE “A day of reckoning when penance is to burn"
-----------------------------------------------------------------
-----------------------------------------------------------------
---------------------------------pm------------------------------
-PM------------------------------================================
-===============================-5-5-5-5-5-5-5-5-5-5-5-5-5-5-5-5-
-0-0-0-0-0-0-0-0-0-0-0-0-0-0-0-0---------------------------------


GUITAR ONE “A day of reckoning when penance is to burn"
--------------------------------------------------------------------
--------------------------------------------------------------------
pm---------------------------------pm-------------------------------
=================================--===============================--
8-8-8-8-8-8-8-8-8-8-8-8-8-8-8-8-8--7-7-7-7-7-7-7-7-7-7-7-7-7-7-7-7--
--------------------------------------------------------------------



GUITAR TWO “A day of reckoning when penance is to burn"
--------------------------------------------------------------------
---8----------------7--------------10---------------9---------------
---x----------------x---------------x---------------x---------------
---5----------------4---------------7---------------6---------------
--------------------------------------------------------------------
--------------------------------------------------------------------



GUITAR ONE
"Count down together now and say the words that you will learn"
------------------------------------------------------------------------------------------------
------------------------------------------------------------------------------------------------
---------------------------------pm-------------------------------------------------------------
-PM------------------------------===============================-pm-----------------------------
-===============================-5-5-5-5-5-5-5-5-5-5-5-5-5-5-5-5-===============================
-0-0-0-0-0-0-0-0-0-0-0-0-0-0-0-0---------------------------------8-8-8-8-8-8-8-8-8-8-8-8-8-8-8-8


GUITAR ONE
"Count down together now and say the words that you will learn"
---------------
---------------
---------------
--------rest---
---------------
--4---4--------


GUITAR TWO
"Count down together now and say the words that you will learn"
--------------------------------------------------------------------
-12--------------7--------------------------------------------------
--x--------------x------------------12\11-9-------------------------
--9--------------4-------------------x--x-x-----------6---6----REST-
------------------------------------10\-9-7-----------x---x---------
------------------------------------------------------4---4---------



CHORUS
|-------------------------------------------------------------------
|:------------------------------------------------------------------
|----9-7-9----9-7-9--7-7-7-7-7-7-7-7-10-10-10-10-10-10-10-10--------
|----9-7-9----9-7-9--7-7-7-7-7-7-7-7-10-10-10-10-10-10-10-10--------
|:---7-7-7----7-7-7--5-5-5-5-5-5-5-5--8--8--8--8--8--8--8--8--------
|--0--------0--------5-5-5-5-5-5-5-5--8--8--8--8--8--8--8--8--------


CHORUS
------------------------------------------------------| ----------
-------------------------------------5-5-5-5-5-5-5-5-:| ----------
-----9-7-9---9-7-9--7-7-7-7-7-7-7-7--6-6-6-6-6-6-6-6--| --REST----
-----9-7-9---9-7-9--7-7-7-7-7-7-7-7--7-7-7-7-7-7-7-7--| ----------
-----7-7-7---7-7-7--5-5-5-5-5-5-5-5--0-0-0-0-0-0-0-0-:| ----------
---0-------0--------5-5-5-5-5-5-5-5-------------------| ----------



Guitar one, Belial, Behemoth, Beelzebub...
----------------------------------------------------------------------------------------------
----------------------------------------------------------------------------------------------
----------------------------------------------------------------------------------------------
----pm------------------------pm----------------------pm------------------------pm---pm-------
-10-=======================-9-===================-6-7-=======================---==---==-----6-
----0-0-0-0-0-0-0-0-0-0-0-0---0-0-0-0-0-0-0-0-0-0-----0-0-0-0-0-0-0-0-0-0-0-0-0-00-0-00--/7---


Guitar two, Belial, Behemoth, Beelzebub...
----------------------------------------------------------------------------------------------
----------------------------------------------------------------------------------------------
-9------------------------------------------------------------------------------------------8-
-9-pm----------------------9-pm------------------4-5-pm-------------------------pm---pm--/9---
---=======================---===================------=======================---==---==-------
---0-0-0-0-0-0-0-0-0-0-0-0---0-0-0-0-0-0-0-0-0-0------0-0-0-0-0-0-0-0-0-0-0-0-0-00-0-00-------



Guitar one, Asmodeus, Satanas, Lucifer...
----------------------------------------------------------------------------------------------
----------------------------------------------------------------------------------------------
----------------------------------------------------------------------------------------------
----pm------------------------pm----------------------pm------------------------pm---pm---3---
-10-=======================-9-===================-6-7-=======================---==---==---x---
----0-0-0-0-0-0-0-0-0-0-0-0---0-0-0-0-0-0-0-0-0-0-----0-0-0-0-0-0-0-0-0-0-0-0-0-00-0-00---1---


Guitar two, Asmodeus, Satanas, Lucifer...
----------------------------------------------------------------------------------------------
----------------------------------------------------------------------------------------------
-9--------------------------------------------------------------------------------------------
-9-pm----------------------9-pm------------------4-5-pm-------------------------pm---pm-------
---=======================---===================------=======================---==---==-------
---0-0-0-0-0-0-0-0-0-0-0-0---0-0-0-0-0-0-0-0-0-0------0-0-0-0-0-0-0-0-0-0-0-0-0-00-0-00---1---



VERSE TWO “Crestfallen kings and queens comforting in their faith”
--------------------------------------------------------------------
--------------------------------------------------------------------
--------------------------------------------------------------------
--pm----------------------------------------------------------------
--=================================================================-
--0-0-0-0-0-0-0-0-0-0-0-0-0-0-0-0-0-0-0-0-0-0-0-0-0-0-0-0-0-0-0-0-0-



VERSE TWO “Unbeknownst to them is the presence of the wraith”
-----------------------------------------------------------------------
-----------------------------------------------------------------------
-----------------------------------------------------------------------
--pm-------------------------------------------------------------------
--=================================================================----
--0-0-0-0-0-0-0-0-0-0-0-0-0-0-0-0-0-0-0-0-0-0-0-0-0-0-0-0-0-0-0-0-0--1-



GUITAR ONE “Since fate of man is equal to the fate of lice"
-----------------------------------------------------------------
-----------------------------------------------------------------
---------------------------------pm------------------------------
-PM------------------------------================================
-===============================-5-5-5-5-5-5-5-5-5-5-5-5-5-5-5-5-
-0-0-0-0-0-0-0-0-0-0-0-0-0-0-0-0---------------------------------


GUITAR ONE “Since fate of man is equal to the fate of lice"
--------------------------------------------------------------------
--------------------------------------------------------------------
pm---------------------------------pm-------------------------------
=================================--===============================--
8-8-8-8-8-8-8-8-8-8-8-8-8-8-8-8-8--7-7-7-7-7-7-7-7-7-7-7-7-7-7-7-7--
--------------------------------------------------------------------


GUITAR TWO “Since fate of man is equal to the fate of lice"
--------------------------------------------------------------------
---8----------------7--------------10---------------9---------------
---x----------------x---------------x---------------x---------------
---5----------------4---------------7---------------6---------------
--------------------------------------------------------------------
--------------------------------------------------------------------



GUITAR ONE
"As new dawn rises you shalt recognize now behold the Lord Of Flies"
------------------------------------------------------------------------------------------------
------------------------------------------------------------------------------------------------
---------------------------------pm-------------------------------------------------------------
-PM------------------------------===============================-pm-----------------------------
-===============================-5-5-5-5-5-5-5-5-5-5-5-5-5-5-5-5-===============================
-0-0-0-0-0-0-0-0-0-0-0-0-0-0-0-0---------------------------------8-8-8-8-8-8-8-8-8-8-8-8-8-8-8-8


GUITAR ONE
"As new dawn rises you shalt recognize now behold the Lord Of Flies"
---------------
---------------
---------------
---------------
--------/6-----
--4---4--------



GUITAR TWO
"As new dawn rises you shalt recognize now behold the Lord Of Flies"
--------------------------------------------------------------------
-12--------------7--------------------------------------------------
--x--------------x------------------12\11-9-------------------------
--9--------------4-------------------x--x-x-----------6---6--/10----
------------------------------------10\-9-7-----------x---x---------
------------------------------------------------------4---4---------




CHORUS
--------------------------------------------------------------------
--------------------------------------------------------------------
-----9-7-9----9-7-9--7-7-7-7-7-7-7-7-10-10-10-10-10-10-10-10--------
-----9-7-9----9-7-9--7-7-7-7-7-7-7-7-10-10-10-10-10-10-10-10--------
-----7-7-7----7-7-7--5-5-5-5-5-5-5-5--8--8--8--8--8--8--8--8--------
---0--------0--------5-5-5-5-5-5-5-5--8--8--8--8--8--8--8--8--------



CHORUS
------------------------------------------------------------------
-------------------------------------5-5-5-5-5-5-5-5--------------
-----9-7-9---9-7-9--7-7-7-7-7-7-7-7--6-6-6-6-6-6-6-6--------------
-----9-7-9---9-7-9--7-7-7-7-7-7-7-7--7-7-7-7-7-7-7-7--------------
-----7-7-7---7-7-7--5-5-5-5-5-5-5-5--0-0-0-0-0-0-0-0--------------
---0-------0--------5-5-5-5-5-5-5-5-------------------------------



SOLO
----------------------------------------------------------------------
--------------------7^8-----------------------------------------------
-8---8--9-9^b9--8-9-----9--9-9/12-9-12^b-12^b-12^b12\--8---8-9-11^b-9-
---9-----------------------------------------------------9------------
----------------------------------------------------------------------
----------------------------------------------------------------------


SOLO
--------------------------------------------------------------------
---------------------12----------------------7-----7-7^b7-----------
-11-11^b-9--9-9-12-9----11^b11^b11---7---7-9---9-7--------9--9-9/12-
---------------------------------------7----------------------------
--------------------------------------------------------------------
--------------------------------------------------------------------


SOLO
---------------------------------------------------------------------
------------------------------------------------12^b-12^b-12^b-12^b12
-7-7^9-----8---8-9-11^b-9-11-11^b-9--9-9-/12-9-----------------------
-------7-----9-------------------------------------------------------
---------------------------------------------------------------------
---------------------------------------------------------------------


SOLO
------------------
--7^b-7^b-7^b-5---
------------------
------------------
------------------
------------------


GUITAR UNDER SOLO
--------------------------------------------------------------------
--------------------------------------------------------------------
-------------------9-9-9-9-9-9-9-9--5-5-5-5-5-5-5-5-4-4-4-4-4-4-4-4-
---9-9-9-9-9-9-9-9-9-9-9-9-9-9-9-9--5-5-5-5-5-5-5-5-4-4-4-4-4-4-4-4-
---6-6-6-6-6-6-6-6-7-7-7-7-7-7-7-7--3-3-3-3-3-3-3-3-2-2-2-2-2-2-2-2-
--------------------------------------------------------------------


GUITAR UNDER SOLO
--------------------------------------------------------------------
--------------------------------------------------------------------
-------------------9-9-9-9-9-9-9-9--5-5-5-5-5-5-5-5-4-4-4-4-4-4-4-4-
---9-9-9-9-9-9-9-9-9-9-9-9-9-9-9-9--5-5-5-5-5-5-5-5-4-4-4-4-4-4-4-4-
---6-6-6-6-6-6-6-6-7-7-7-7-7-7-7-7--3-3-3-3-3-3-3-3-2-2-2-2-2-2-2-2-
--------------------------------------------------------------------


GUITAR UNDER SOLO
--------------------------------------------------------------------
--------------------------------------------------------------------
-7-7-7-7-7-7-7-7-9-9-9-9-9-9-9-9-5-5-5-5-9-9-9-9-7-7-7-7-7-7-7-7----
-7-7-7-7-7-7-7-7-9-9-9-9-9-9-9-9-5-5-5-5-9-9-9-9-7-7-7-7-7-7-7-7----
-5-5-5-5-5-5-5-5-7-7-7-7-7-7-7-7-3-3-3-3-7-7-7-7-5-5-5-5-5-5-5-5----
---------------------------------3-3-3-3-7-7-7-7-5-5-5-5-5-5-5-5----


GUITAR UNDER SOLO
--------------------------------------------------------------------
--------------------------------------------------------------------
-------------------9-9-9-9-9-9-9-9--5-5-5-5-5-5-5-5-4-4-4-4-4-4-4-4-
---9-9-9-9-9-9-9-9-9-9-9-9-9-9-9-9--5-5-5-5-5-5-5-5-4-4-4-4-4-4-4-4-
---6-6-6-6-6-6-6-6-7-7-7-7-7-7-7-7--3-3-3-3-3-3-3-3-2-2-2-2-2-2-2-2-
--------------------------------------------------------------------


BRIDGE
--------------------------------------------------------------------
--------------------------------------------------------------------
-------------------9-9-9-9-9-9-9-9--5-5-5-5-5-5-5-5-4-4-4-4-4-4-4-4-
---9-9-9-9-9-9-9-9-9-9-9-9-9-9-9-9--5-5-5-5-5-5-5-5-4-4-4-4-4-4-4-4-
---6-6-6-6-6-6-6-6-7-7-7-7-7-7-7-7--3-3-3-3-3-3-3-3-2-2-2-2-2-2-2-2-
--------------------------------------------------------------------


BRIDGE
--------------------------------------------------------------------
--------------------------------------------------------------------
-------------------9-9-9-9-9-9-9-9--5-5-5-5-5-5-5-5-4-4-4-4-4-4-4-4-
---9-9-9-9-9-9-9-9-9-9-9-9-9-9-9-9--5-5-5-5-5-5-5-5-4-4-4-4-4-4-4-4-
---6-6-6-6-6-6-6-6-7-7-7-7-7-7-7-7--3-3-3-3-3-3-3-3-2-2-2-2-2-2-2-2-
--------------------------------------------------------------------


BRIDGE
----------------------------------------------------------------------
----------------------------------------------------------------------
-7-7-7-7-7-7-7-7--9-9-9-9-9-9-9-9--5-5-5-5--9-9-9-9--7-7-7-7-7-7-7-7--
-7-7-7-7-7-7-7-7--9-9-9-9-9-9-9-9--5-5-5-5--9-9-9-9--7-7-7-7-7-7-7-7--
-5-5-5-5-5-5-5-5--7-7-7-7-7-7-7-7--3-3-3-3--7-7-7-7--5-5-5-5-5-5-5-5--
------------------7-7-7-7-7-7-7-7--3-3-3-3--7-7-7-7--5-5-5-5-5-5-5-5--


BRIDGE
--------------------------------------------------------------------
--------------------------------------------------------------------
-------------------9-9-9-9-9-9-9-9--5-5-5-5-5-5-5-5-4-4-4-4-4-4-4-4-
---9-9-9-9-9-9-9-9-9-9-9-9-9-9-9-9--5-5-5-5-5-5-5-5-4-4-4-4-4-4-4-4-
---6-6-6-6-6-6-6-6-7-7-7-7-7-7-7-7--3-3-3-3-3-3-3-3-2-2-2-2-2-2-2-2-
--------------------------------------------------------------------


BRIDGE
----------------------------------------------------------------------
--------------------“HELL-SATAN“--------------------------------------
---------------------QUICK-------------7-7-7-7-7-7-7-7----------------
4-4-4-4-4-4-4-4--2-2--REST--------2----7-7-7-7-7-7-7-7-3-3-3-3-3-3-3-3
6-6-6-6-6-6-6-6--2-2--------------2----5-5-5-5-5-5-5-5-3-3-3-3-3-3-3-3
7-7-7-7-7-7-7-7--0-0--------------0--------------------1-1-1-1-1-1-1-1


CHORUS
------------------------------------------------------------------
-------------------------------------5-5-5-5-5-5-5-5--------------
-----9-7-9---9-7-9--7-7-7-7-7-7-7-7--6-6-6-6-6-6-6-6--------------
-----9-7-9---9-7-9--7-7-7-7-7-7-7-7--7-7-7-7-7-7-7-7--------------
-----7-7-7---7-7-7--5-5-5-5-5-5-5-5--0-0-0-0-0-0-0-0--------------
---0-------0--------5-5-5-5-5-5-5-5-------------------------------


CHORUS
--------------------------------------------------------------------
--------------------------------------------------------------------
-----9-7-9----9-7-9--7-7-7-7-7-7-7-7-10-10-10-10-10-10-10-10--------
-----9-7-9----9-7-9--7-7-7-7-7-7-7-7-10-10-10-10-10-10-10-10--------
-----7-7-7----7-7-7--5-5-5-5-5-5-5-5--8--8--8--8--8--8--8--8--------
---0--------0--------5-5-5-5-5-5-5-5--8--8--8--8--8--8--8--8--------


CHORUS
------------------------------------------------------------------
-------------------------------------5-5-5-5-5-5-5-5--------------
-----9-7-9---9-7-9--7-7-7-7-7-7-7-7--6-6-6-6-6-6-6-6--------------
-----9-7-9---9-7-9--7-7-7-7-7-7-7-7--7-7-7-7-7-7-7-7--------------
-----7-7-7---7-7-7--5-5-5-5-5-5-5-5--0-0-0-0-0-0-0-0--------------
---0-------0--------5-5-5-5-5-5-5-5-------------------------------



OUTRO SOLO
-0-0-0-0-0-0-0-0-0-0-0-0--0--0--0--0-PM-----------------------------
-5-5-5-5-7-7-7-7-8-8-8-8-12-12-12-12-=====--PM--=====------=====----
-------------------------------------12-11--==--12-11--==--12-11----
--------------------------------------------12---------12-----------
--------------------------------------------------------------------
--------------------------------------------------------------------


OUTRO SOLO
-PM-----------------------------------------------------------------
-=====-PM--=====-----=====------------------------------------------
-12-10-==--12-10-==--12-10------------------------------------------
-------10--------10-------------------------------------------------
--------------------------------------------------------------------
--------------------------------------------------------------------


OUTRO SOLO
-0-0-0-0-0-0-0-0-0-0-0-0--0--0--0--0-PM-----------------------------
-5-5-5-5-7-7-7-7-8-8-8-8-12-12-12-12-=====--PM--=====------=====----
-------------------------------------12-11--==--12-11--==--12-11----
--------------------------------------------12---------12-----------
--------------------------------------------------------------------
--------------------------------------------------------------------


OUTRO SOLO
-=------=-------=---------------------------------------------------
-5-=----5-=-----5-=-------------------------------------------------
---6-=----6-=-----6-END---------------------------------------------
-----7------7-------------------------------------------------------
--------------------------------------------------------------------
--------------------------------------------------------------------



GUITAR UNDER OUTRO SOLO
--------------------------------------------------------------------
--------------------------------------------------------------------
-----9-7-9----9-7-9--7-7-7-7-7-7-7-7-10-10-10-10-10-10-10-10--------
-----9-7-9----9-7-9--7-7-7-7-7-7-7-7-10-10-10-10-10-10-10-10--------
-----7-7-7----7-7-7--5-5-5-5-5-5-5-5--8--8--8--8--8--8--8--8--------
---0--------0--------5-5-5-5-5-5-5-5--8--8--8--8--8--8--8--8--------


GUITAR UNDER OUTRO SOLO
------------------------------------------------------------------
-------------------------------------5-5-5-5-5-5-5-5--------------
-----9-7-9---9-7-9--7-7-7-7-7-7-7-7--6-6-6-6-6-6-6-6-END----------
-----9-7-9---9-7-9--7-7-7-7-7-7-7-7--7-7-7-7-7-7-7-7--------------
-----7-7-7---7-7-7--5-5-5-5-5-5-5-5--0-0-0-0-0-0-0-0--------------
---0-------0--------5-5-5-5-5-5-5-5-------------------------------




            
            
Suggest correction
Creating personal tab
Creating personal tab
You can edit any tab online and save it as your Personal.

You can edit, replace or remove any tab part or add personal notes – all changes will be seen only by you.

Personal tabs can be accessed anytime from any device, even offline.
Learn more »
Give kudos to tab author, rate the tab!
1 2 3 4 5
comments
print report bad tab
1 comment total.
0 reply
cravingaura 63 Aug 25, 2016 12:20 PM

Great tab!!

guest
You may want to rate the tab now too:
select rating
Wanna post a correction for this tab? Suggest correction