Oops, an error
Loading. Please wait.

Golden Number tab

version 1
version 1

Whole song

Interactive

1,270 views 24 this week
no commentswrite comment
1 2 3 4 5
x 4
add to favorites
×
Save as Personal and add changes to this tab that will be seen only by you. Learn more ›
×
You can save this tab as Personal to edit and correct it or add notes. All changes will be seen only by you. Learn more »
launch autoscroll
font size
0
reset
how to read this tab
guitar tuner
edit
Autoscroll
slow
fast
+/-
esc
set tempo
stop
Ghost Bath - Golden Number
Track 2 from the album "Moonlover" (2015).
Re-released by Nuclear Blast in 2016.

Tabbed by Isaac Murguia, August 2016.
Originally uploaded to Ultimate-Guitar.com
Contact: www.youtube.com/user/Goadiroth

Standard D Tuning (D G C F A D)
Capo on 3rd Fret

" = tremolo
h = hammer-on
/ = slide up
x = muted string

Tab is only relative to capo with the open chords
All other notes are what they are

INTRO:
  Lead
d|----------------------------------------|------------------------------------------|
A|-13"--15"--13"--15"--10"--11"--10"--11"-|-13"--15"--13"--15"--------11"------------|
F|----------------------------------------|------------------------------------------|
C|----------------------------------------|------------------------------------------|
G|----------------------------------------|------------------------------------------|
D|----------------------------------------|------------------------------------------|
  Rhythm
d|----------------------------------------|------------------------------------------|
A|----------------------------------------|------------------------------------------|
F|----------------------------------------|----------------------------------8"------|
C|----------------------------------------|----------------------------------8"------|
G|-13"-----------------10"----------------|-13"----------------10"----6"-----6"------|
D|----------------------------------------|------------------------------------------|

VERSE:
  Lead
d|-------------------------------------|-------------------------------------|
A|-11"------10"-11"--8"-------6"-------|-11"------10"-11"--8"-------6"-------|
F|-------------------------------------|-------------------------------------|
C|-------------------------------------|-------------------------------------|
G|-------------------------------------|-------------------------------------|
D|-------------------------------------|-------------------------------------|
  Rhythm (relative to capo / strum really fast)
d|-0--------0--------3--------3--------|-0--------0--------3--------3--------|
A|-0--------0--------3--------3--------|-0--------0--------3--------3--------|
F|-0--------0--------0--------0--------|-0--------0--------0--------0--------|
C|-2--------2--------0--------0--------|-2--------2--------0--------0--------|
G|-2--------2--------2--------2--------|-2--------2--------2--------2--------|
D|-0--------0--------3--------3--------|-0--------0--------3--------3--------|

  Lead
d|-------------------------------------|-------------------------------------|
A|-13"------15"-13"--11"------10"-11"--|-13"------15"-13"--11"------10"-11"--|
F|-------------------------------------|-------------------------------------|
C|-------------------------------------|-------------------------------------|
G|-------------------------------------|-------------------------------------|
D|-------------------------------------|-------------------------------------|
  Rhythm (relative to capo / strum really fast)
d|-2--------2--------0--------0--------|-2--------2--------0--------0--------|
A|-3--------3--------1--------1--------|-3--------3--------1--------1--------|
F|-2--------2--------0--------0--------|-2--------2--------0--------0--------|
C|-0--------0--------2--------2--------|-0--------0--------2--------2--------|
G|-------------------3--------3--------|-------------------3--------3--------|
D|-------------------0--------0--------|-------------------0--------0--------|

Repeat VERSE

CHORUS:
  Lead
d|------------13---------|------------13---------|------------13---------|--------------------|
A|-11---13h15-----16--15-|-11---13h15-----16--15-|-11---13h15-----16--15-|-11--13--13/15--13--|
F|-----------------------|-----------------------|-----------------------|--------------------|
C|-----------------------|-----------------------|-----------------------|--------------------|
G|-----------------------|-----------------------|-----------------------|--------------------|
D|-----------------------|-----------------------|-----------------------|--------------------| x2
  Rhythm (relative to capo)
d|-0-----2--0-------3--------2--2--2--2-|-0-----2--0-------3--------2--2--2--2-|
A|-1-----3--0-------0--------3--3--3--3-|-1-----3--0-------0--------3--3--3--3-|
F|-0-----2--0-------0--------2--2--2--2-|-0-----2--0-------0--------2--2--2--2-|
C|-2-----0--2-------0--------0--0--0--0-|-2-----0--2-------0--------0--0--0--0-|
G|-3--------2-------2-------------------|-3--------2-------2-------------------|
D|-0--------0-------3-------------------|-0--------0-------3-------------------|

  Lead
d|-------------------------------------------|
A|-11-------10--10h11--8---6----6--8--10-11--|
F|-------------------------------------------|
C|-------------------------------------------|
G|-------------------------------------------|
D|-------------------------------------------| x2
  Rhythm (relative to capo)
d|-0--------0----------3--------2--2--2--2-|
A|-1--------0----------0--------3--3--3--3-|
F|-0--------0----------0--------2--2--2--2-|
C|-2--------2----------0--------0--0--0--0-|
G|-3--------2----------2-------------------|
D|-0--------0----------3-------------------| x2

Repeat CHORUS, but this time a 3rd guitar plays this x2:
d|------------------------------------|    |----------------------------|
A|------------------------------------|    |----------------------------|
F|-10--1010--101010--15--1514--141414-|    |-10--101012--121214--141415-|
C|-x---x-x---x-x-x---x---x-x---x-x-x--|    |-x---x-x-x---x-x-x---x-x-x--|
G|-8---8-8---8-8-8---13--1312--121212-|    |-8---8-8-10--101012--121213-|
D|------------------------------------| x3 |----------------------------|

BRIDGE A:
  Lead
d|--------------------------------|
A|--------------------------------|
F|-----does-not-play-anything-----|
C|--------------------------------|
G|--------------------------------|
D|--------------------------------|
  Rhythm (not relative to capo)
d|--------------------------------|
A|--------------------------------|
F|--------------------------------|
C|--------------------------------|
G|-13"---15"-10"-----8"------6"---|
D|--------------------------------| x2

BRIDGE B:
  Lead
d|-----------------------------------------|
A|-----------------16"-15"---18"-----------|
F|-12"---14"-15"-------------------10"-12"-|
C|-----------------------------------------|
G|-----------------------------------------|
D|-----------------------------------------| x6
  Rhythm (not relative to capo)
d|--------------------------------|
A|--------------------------------|
F|--------------------------------|
C|--------------------------------|
G|-13"---15"-10"-----8"------6"---|
D|--------------------------------| x6
  3rd Guitar Layer (this is in Drop C, no capo)
d|--------------------------------|
A|--------------------------------| they don't play this part live
F|--------------------------------| but i swear i hear it in the album version lol
C|-1----3--5----5--7--8----/13----| this one comes in on
G|-1----3--5----5--7--8----/13----| 3rd repetition of bridge b
C|-1----3--5----5--7--8----/13----|

Repeat VERSE
Repeat BRIDGE B x4

OUTRO: (clean tone)
d|-10---13---11---10---10---8----6---|
A|-11---11---11---11---11---10---8---|
F|-12------------------12--------8---|
C|-----------------------------------|
G|-----------------------------------|
D|-----------------------------------| x4

d|-10---13-11---10-10---8--6---|
A|-11---11-11---11-11---10-8---|
F|-12--------------------------|
C|-----------------------------|
G|-----------------------------|
D|-----------------------------|

Then starts keyboard/piano part...

End. Please rate! :D
Suggest correction
Creating personal tab
Creating personal tab
You can edit any tab online and save it as your Personal.

You can edit, replace or remove any tab part or add personal notes – all changes will be seen only by you.

Personal tabs can be accessed anytime from any device, even offline.
Learn more »
comments
print report bad tab
guest
You may want to rate the tab now too:
select rating
Wanna post a correction for this tab? Suggest correction